busca

Tive Razão

Seu Jorge

Tom: C
    Em7        Dm7         Dm7      (para o C7M,              B7
                                 alternar estes dois)
E|----12---------10--------15----------19---17---------------19------------
B|----12---------10--------15----------17---17---------------19------------
G|----12---------10--------16----------17---17---------------20------------
D|----12---------10--------15--------------------------------19------------
A|-------------------------------------------------------------------------
E|-------------------------------------------------------------------------

ou
      Em7        Dm7       Dm7       C7M B7
E|----12---------10--------10---------8--7---------------------------------
B|----12---------10--------12---------8--7---------------------------------
G|----12---------10--------12---------9--8---------------------------------
D|----12---------10--------12---------10-11--------------------------------
A|-------------------------------------------------------------------------
E|-------------------------------------------------------------------------

Em     Dm
Tive razão
G7
Posso falar
C             B7
Não foi legal, não pegou bem
Em        Dm        G7
Que vontade de chorar dói
C                    B7
Em pensar que ela não vem, só dói
Em                 Dm          G7
Mas pra mim tá tranquilo, eu vou zoar
C                     B7
O clima é de partida, vou dar sequência na vida
Em
E de bobeira é que eu não estou,
Dm    G7                 C
E você sabe como é que é, eu vou
         B7
Mas poderei voltar quando você quiser.
(Em Dm G7 C B7)
uh uh uh uh uh , ah ah ah ah...

(Em Dm G7 C B7 )
Demorô vai ser melhor...

(volta ao início)

Clipes

Cifra Club Pro

Aproveite o Cifra Club com benefícios exclusivos e sem anúncios
Cifra Club Pro
Aproveite o Cifra Club com benefícios exclusivos e sem anúncios