busca

Mrs. Robinson

Simon & Garfunkel

Tom: A (forma dos acordes no tom de G) Capotraste na 2ª casa
[Intro]

(Parte 1 de 5)

E|----------------------------------------------------|
B|----------------------------------------------------|
G|----------------------------------------------------|
D|---------0----2-------------------------------------|
A|---0h2----------------------------------------------|
E|-0-----0---0----------------------------------------|

(Parte 2 de 5)

E|------------------------------0---------------------|
B|---------------------5--b9r7--5~--------------------|
G|----------------/4-7--------------------------------|
D|---------0---2--------------------------------------|
A|---0h2----------------------------------------------|
E|-0-----0---0----------------------------------------|

(Parte 3 de 5)

E|----------------------------------------------------|
B|----------------------------------------------------|
G|----------------------------------------------------|
D|-2-----------0-----5b---5b----0---------------------|
A|---2\1p0-----------4b---4b--------------------------|
E|---2\1p0--3b---0------0-----0-----------------------|

(Parte 4 de 5)

E|----------------------------------------------------|
B|----------------------------------------------------|
G|---------0-2----------------------------------------|
D|-----0h2--------------------------------------------|
A|-0h2------------------------------------------------|
E|----------------------------------------------------|

(Parte 5 de 5)

E|----------------------------------------------------|
B|-7b9------------------------------------------------|
G|-7b9------------------------------------------------|
D|----------------------------------------------------|
A|----------------------------------------------------|
E|----------------------------------------------------|

(Parte 5 de 5 variação)

E|----------------------------------------------------|
B|-7b9r7---5------------------------------------------|
G|-7b9r7---4--7b8r7-----------------------------------|
D|------------7b8r7--5b6------------------------------|
A|------------------------7---------------------------|
E|----------------------------------------------------|

( E )

 E
Ti tiriri ti tiri
                E7
Ti tiri tiri ti
 A7
Tu tururu tu turu turu tu
D           G
  Tiririri ti ti tiri
 C/G        Am
Ti ti tiri ti

( E7  D7/F# )

[Refrão]
               G         Em      Em/F#
And here's to you, Mrs. Robinson
 G               Em                  C/G
Jesus loves you more than you will know
           D7/F#
Wow, wow, wow
                G           Em      Em/F#
God bless you please, Mrs. Robinson
 G               Em                  C/G
Heaven holds a place for those who pray
         Am
Hey hey hey, hey hey hey

[Primeira Parte]

E
  We'd like to know

A little bit about you
              E7
For our files
      A7
We'd like to help you learn

To help yourself
D
  Look around you
G
All you see are
 C/G        Am
Sympathetic eyes
E
 Stroll around the grounds
   D7/F#
Until you feel at home

[Refrão]

               G         Em      Em/F#
And here's to you, Mrs. Robinson
 G               Em                  C/G
Jesus loves you more than you will know
           D7/F#
Wow, wow, wow
                G           Em      Em/F#
God bless you please, Mrs. Robinson
 G               Em                  C/G
Heaven holds a place for those who pray
         Am
Hey hey hey, hey hey hey

[Primeira Parte]

E
  Hide it in a hiding place
                       E7
Where no one ever goes
A7
 Put it in your pantry

With your cupcakes
D                G
  It's a little secret
          C/G          Am
Just the Robinsons' affair
E
 Most of all, you've got to
 D7/F#
Hide it from the kids

[Refrão]

             G         Em      Em/F#
Coo coo ca-choo, Mrs. Robinson
 G               Em                  C/G
Jesus loves you more than you will know
         D7/F#
Wow wow wow
                G           Em      Em/F#
God bless you please, Mrs. Robinson
 G               Em                  C/G
Heaven holds a place for those who pray
         Am
Hey hey hey, hey hey hey

[Primeira Parte]

E
  Sitting on a sofa
                      E7
On a Sunday afternoon
A7
  Going to the candidates' debate
D
  Laugh about it
  G
Shout about it
  C/G                Am
When you've got to choose
E7                              D7/F#
  Every way you look at it you lose

[Refrão]

                G           Em
Where have you gone, Joe DiMaggio
Em/F#  G                Em             C/G
A     nation turns its lonely eyes to you
        D7/F#
Ooo ooo ooo
                 G         Em      Em/F#
What's that you say, Mrs. Robinson
 G               Em           C/G
Joltin' Joe has left and gone away
         Am              E
Hey hey hey, hey hey hey

Clipes

Cifra Club Pro

Aproveite o Cifra Club com benefícios exclusivos e sem anúncios
Cifra Club Pro
Aproveite o Cifra Club com benefícios exclusivos e sem anúncios