É Proibido Fumar

Skank

B
234
X24442
C
123
X32010
C#
234
X46664
D5
134
X577XX
E5
12
022XXX
F#
234
244322
Tom: G
[Intro]


    E5     D5  E5
E|--------------------------------
B|--------------------------------
G|--9-9-9--7---9------------------
D|--9-9-9--7---9------------------
A|--7-7-7--5---7------------------
E|--0-0-0-------------------------



E|-2p0-0-2p0-0-2-0---------2-0-0-
B|-2p0-0-2p0-0-2-0-------2-2-0-0-
G|-----------------2/3-----------
D|---------------------4---------
A|-------------------------------
E|-------------------------------

E|2-0-2-2-0--| 
B|2-0-2-2-0--| 
G|-----------| 
D|-----------| 
A|-----------| 
E|-----------| 



E|-2-2-0-2-0---------------------
B|-2-2-0-2-0-2/3-----------------
G|---------------4---------------
D|-------------------------------
A|-------------------------------
E|-----------------6/2-2-2-4-2-5-

E|-----------| 
B|-----------| 
G|-----------| 
D|-----------| 
A|-----------| 
E|2-7\5-2----| 



E|--------------------------------
B|--------------------------------
G|--------------------------------
D|--14b-14b-14b-14b-14b-13-11-----
A|--12b-12b-12b-12b-12b-11-9------
E|--------------------------------


[Primeira Parte]

F#
É proibido fumar

Diz o aviso que eu li

É proibido fumar

pois o fogo pode pegar
 C#
Mas nem adianta o aviso olhar
 B
Pois a brasa que agora eu vou mandar
 F#
Nem bombeiro pode apagar

Nem bombeiro pode apagar

[Segunda Parte]

    F#
Eu pego uma garota

E canto uma canção

Nela dou um beijo

Com empolgação

Do beijo sais faísca E a turma toda grita C# Que o fogo pode pegar F# Nem bombeiro pode apagar O Beijo que eu dei nela assim Nem bombeiro pode apagar Garota pegou fogo em mim C# Sigo incendiando bem contente e feliz B Nunca respeitando o aviso que diz [Refrão] F# É proibido fumar É proibido fumar [Solo] F# [Segunda Parte] F# Eu pego uma garota E canto uma canção Nela dou um beijo Com empolgação Do beijo sais faísca E a turma toda grita C# Que o fogo pode pegar F# Nem bombeiro pode apagar O Beijo que eu dei nela assim Nem bombeiro pode apagar Garota pegou fogo em mim C# Sigo incendiando C Bem contente e feliz B Nunca respeitando o aviso que diz [Refrão] F# É proibido fumar É proibido fumar É proibido fumar É proibido fumar F# É proibido fumar É proibido fumar É proibido fumar É proibido fumar [Final] F#
Composição: Erasmo Carlos / Roberto CarlosColaboração e revisão: Gustavo VazArtur Silveira