Galápagos

Skank

A
123
X02220
Am
123
X02210
Bm
234
X24432
C
123
X32010
Em
12
022000
Tom: G
Intro Base:  A  Em  C  Bm


E|--------------------------------
B|--------------------------------
G|--------------------------------
D|---2-------0---0-2------0-5-----
A|-0---0~--2---3------3-2---------
E|--------------------------------

E|----------------------------------
B|------0~--------------------------
G|----2-----------------------------
D|--2-------------------------------
A|0---------------------------------
E|----------------------------------


A              Em
Nas ilhas de Galápagos
C                  Bm            
Na linha do Equador, no marco 
   A
zero
             Em
Assim que o sol se pôs
C              Bm                 A
E a lua despontou no azul do céu

A           Em
Na areia da praia
C         Bm       A
Vinda das ondas do mar
A         Em
Sereia ou fada
C         Bm        A
Dali começou a encantar

Am             Em
Diga: de onde vem?
Am Em Bem-vinda, procura alguém? Am Fico onde estou, vou ou não vou? Em Miro de longe Am Digo que vou ao seu encontro Em Sigo meu voo Break: A Repete Intro: A Em C Bm A Em Esfinge do Cairo C Bm A Das dunas lancinates do deserto A Em Círio celeste em fogo C Bm A Sua lira delirante não tem nexo A Em Na beira da praia C Bm A Vestida de conchas do mar A Em Sereia ou fada C Bm A Ali começou a cantar Am Em Se não dá pé, deixa na mão Am Em Missa que a fé, enxerga não Am Linda chegou pra esse pouso Em Vinda de longe Am Fica que eu vou ao seu encontro Em Sigo seu voo Final: A
Composição: Samuel Rosa / Nando ReisColaboração e revisão: Lauro MandelaLuiz Nascimento