Vou Deixar

Skank

A
123
X02220
Bm
234
X24432
D
123
XX0232
Em
12
022000
F#
234
244322
F#m
34
244222
G
234
355433
Gm
34
355333
Tom: G
[Intro]

#1t1##1t2#E|-0-0-0-0-0-0-0-0-0-0-0-0-0-0-0-0---------------------|
B|-5-5-3-3-2-2-3-3-5-5-3-3-2-2-3-3---------------------|
G|-----------------------------------------------------|
D|-----------------------------------------------------|
A|-----------------------------------------------------|
E|-----------------------------------------------------|#/1t2##/1t1#

#2t1##2t2#E|-0-0-0-0-0-0-0-0-0-0-0-0-0-0-0-0---------------------|
B|-5-5-3-3-2-2-3-3-5-5-3-3-2-2-0-0---------------------|
G|-----------------------------------------------------|
D|-----------------------------------------------------|
A|-----------------------------------------------------|
E|-----------------------------------------------------|#/2t2##/2t1#

[Primeira Estrofe]

        D  F#
Vou deixar
        G       Gm
A vida me levar
                 D  F#
Pra onde ela quiser
          G        Gm
Estou no meu lugar

Você já sabe onde é

[Segunda Estrofe]

D  Bm   G           A            D
       Não conte o tempo por nós   dois
 Bm  G           A
Pois a qualquer hora
         D      Bm
Posso estar de volta
 G            A
Depois que a noite terminar

[Terceira Estrofe]

        D  F#
Vou deixar
        G       Gm
A vida me levar
                 D  F#
Pra onde ela quiser
          G     Gm
Seguir a direção

De uma estrela qualquer

[Quarta Estrofe]

D  Bm  G         A        D       Bm
      Não quero hora pra voltar, não
 G       A         D       Bm
Conheço bem a solidão, me solta

G          A
E deixa a sorte me buscar

[Quinta Estrofe]

Em                        A   Em
   Eu já estou na sua estrada
                     A
Sozinho não enxergo nada

[Sexta Estrofe]

Em            F#m
   Mas vou ficar aqui
  G                F#m  Em
Até que o dia amanheça
          F#m
Vou esquecer de mim
     A
E você se puder não me esqueça

[Sétima Estrofe]

        D  F#
Vou deixar
       G        Gm
O coração bater
                  D  F#
Na madrugada sem fim
          G         Gm
Deixar o sol te ver

Ajoelhada por mim, sim

[Oitava Estrofe]

D  Bm  G         A        D       Bm
      Não tenho hora pra voltar, não
G       A            D     Bm
Eu agradeço tanto a sua escolta
 G           A
Mas deixa a noite terminar

[Nona Estrofe]

Em                        A   Em
   Eu já estou na sua estrada
                     A
Sozinho não enxergo nada

[Décima Estrofe]

Em            F#m
   Mas vou ficar aqui
  G                F#m  Em
Até que o dia amanheça
          F#m
Vou esquecer de mim
     A
E você se puder não me esqueça

[Solo] D  F#  G  Gm

#3t1##3t2#E|-----------------------------------------------------|
B|-3--5--3--5b7rb7r------5--5--5/7\5---3~--------------|
G|-----------------------------------------3---3/5\3\2-|
D|-----------------------------------------------------|
A|-----------------------------------------------------|
E|-----------------------------------------------------|#/3t2##/3t1#

#4t1##4t2#E|-----------------------------------------------------|
B|-5/7\-----5--5--5/7\5---3~---------------------------|
G|------------------------------3---3/5-3-2------------|
D|-----------------------------------------------------|
A|-----------------------------------------------------|
E|-----------------------------------------------------|#/4t2##/4t1#

[Final]

( D  Bm  G  A )

#5t1##5t2#E|-----------------------------------------------------|
B|-----3-0---0-----------------------------------------|
G|-2-----------2-0---0---------------------------------|
D|-----------------4-----------------------------------|
A|-----------------------------------------------------|
E|-----------------------------------------------------|#/5t2##/5t1#

 D    Bm   G         A
Não, não, não quero hora
     D       Bm
Pra voltar, não
 G       A         D       Bm
Conheço bem a solidão, me solta
G          A
E deixa a sorte me buscar

 D    Bm   G         A
Não, não, não tenho hora
     D       Bm
Pra voltar, não
G       A            D     Bm
Eu agradeço tanto a sua escolta
 G           A
Mas deixa a noite terminar

( D  Bm  G  A )
Composição: Chico Amaral / Samuel RosaColaboração e revisão: Vinícius DiasGustavo LopesRenan PiovanSTEFANO SCHMITTe mais 5
Videoaula Vou Deixar (aula de guitarra)