busca

555 To The 666

Slipknot

Tom: Bb (forma dos acordes no tom de G) Capotraste na 3ª casa
Afinação| C G C F A D

D|--------------------------------|
A|--------------------------------|
F|--------------------------------|
C|--------------------------------| 4x
G|0-0---0-0-0---0-0-0---0-0-0-1---|
C|0-0---0-0-0---0-0-0---0-0-0-1---|


D|--------------------------------|
A|--------------------------------|
F|--------------------------------|
C|--------------------------------| 4x
G|0-0-----0-0-----0-0-----0-0-1---|
C|0-0---010-0---010-0---010-0-1---|


D|--------------------------------|
A|--------------------------------|
F|--------------------------------|
C|--------------------------------| 4x
G|5-5-----3-3-----0-0---0-0-0-1---|
C|5-5-22223-3-11110-0---0-0-0-1---|

D|----|
A|----|
F|----|
C|----|
G|32-|
C|32-|


D|----------------|
A|----------------|
F|----------------|
C|----------------| 8x
G|0-0-----0-0-32-|
C|0-0-01000-0-32-|


D|----------------|
A|----------------|
F|----------------|
C|----------------| 2x
G|------------1---|
C|000-000-000-1---|

D|----------------|
A|----------------|
F|----------------|
C|----------------| 2x
G|----------------|
C|5-5-22223-3-1111|

D|----------------|
A|----------------|
F|----------------|
C|----------------| 2x
G|----------------|
C|5555222233331111|

D|----|
A|----|
F|----|
C|----|
G|--1-|
C|--1-|


D|--------------------------------|
A|--------------------------------|
F|--------------------------------|
C|--------------------------------| 4x
G|0-0-----0-0-----0-0-----0-0---1-|
C|0-0---010-0---010-0---010-0---1-|


D|--------------------------------|
A|--------------------------------|
F|--------------------------------|
C|--------------------------------| 2x
G|0-----------------------------1-|
C|0-----------------------------1-|


D|----------------------------------------------------------------|
A|----------------------------------------------------------------|
F|----------------------------------------------------------------|
C|----------------------------------------------------------------| 4x
G|----------------------------------------------------------------|
C|0-----7~~---------------7---5---8~~---7~~---5~~-----------------|


D|----------------------------------------------------------------| |
A|------7-----------------8---7-8-10----9-------------------------| |
F|7-------------------------------------------7---------------5---| |
C|----------------------------------------------------------------| |
G|----------------------------------------------------------------| |
C|----------------------------------------------------------------| |


D|----------------------------------------------------------------| |
A|------7-----------------8---7-----------------------------------| |
F|7-------------------------------7-----5-------------------------| |
C|----------------------------------------------------------------| |
G|----------------------------------------------------------------| |
C|----------------------------------------------------------------| |

D|--------------------------------|
A|--------------------------------|
F|----7-----5-----3-------3-----3-|
C|--7-----5-----3-----3-------3---| 2x
G|5-----3-----1-----1---1---1-----|
C|--------------------------------|

D|--------------------------------|
A|----10----8-----6-------6-----6-|
F|--7-----5-----3-----3-------3---|
C|7-----5-----3-----3---3---3-----| 2x
G|--------------------------------|
C|--------------------------------|

D|--------------------------------|
A|----3-----5-----6-------6-----6-|
F|--2-----0-----3-----3-------3---|
C|0-----2-----3-----3---3---3-----| 2x
G|--------------------------------|
C|--------------------------------|

D|--------------------------------|
A|--------------------------------|
F|--------------------------------|
C|--------------------------------| 4x
G|0-----0-----0-----0-----0---0h1-|
C|0-----0-----0-----0-----0---0h1-|

D|--------------------------------|
A|--------------------------------|
F|--------------------------------|
C|------------------3-------------| 4x
G|0-----3-----2-----1-----0-3-2---|
C|0-----3-----2-----------0-3-2---|


D|--------------------------------|
A|--------------------------------|
F|--------------------------------|
C|--------------------------------| 4x
G|--------------------------------|
C|5-2-1-2-1-0-5-2-1-2-1-0-5-2-1-2-|

Clipes