Absent

Slipknot

Tom: G
This is an absolutely amazing song, especially compared to thier other  
stuff. 
Don't tune down, just play the root-6 chords as 6-root chords. There are 
loads of effects in this song, and i've tried to give you a general guide,  
but 
sorry if it's wrong. 

Intro (wild guess here)- Use phaser and distortion , ^= 1/4 tone bend. 
0:00 
#1t1##1t2#----------------------------------------------------------------------------------------------- 
----------------------------------------------------------------------------------------------- 
----------------------------------------------------------------------------------------------- 
----------------------------------------------------------------------------------------------- 
6--4--6--4--6--0----6--4--6--4--6^-0---6--4--6--4--6--0---6--4--6--4--6^--0-- 
----------------------------------------------------------------------------------------------- #/1t2##/1t1#

Chorus- Use heavy distotion 
0:15  1:11  1:58  2:53 
#2t1##2t2#------------------------------------------------------------------------------------ 
------------------------------------------------------------------------------------ 
------------------------------------------------------------------------------------ 
------------------------------------------------------------------------------------ 
1--1--1/4--4--4\3--3--3--4p3--3---0--1--1--1/4--4--4\3--3--3--3- 
1--1--1/4--4--4\3--3--3--4p3--3---0--1--1--1/4--4--4\3--3--3--3- #/2t2##/2t1#

Verse- With wah 
0:33  1:29 
#3t1##3t2#---------------------------------------------------------------------------- 
6--6--4h6--6---6--6--4h6--6---6--6--4h6--6---6--6--4h6--6- 
---------------------------------------------------------------------------- 
---------------------------------------------------------------------------- 
---------------------------------------------------------------------------- 
---------------------------------------------------------------------------- #/3t2##/3t1#

Pre-Chorus- With slight wah 
0:52  1:39 
#4t1##4t2#8-8-8--8--9--8--6---8-8-8--9--8--6---8-8-8--8--9--8--6---8-8-8--9--11--8 
------------------------------------------------------------------------------------------ 
------------------------------------------------------------------------------------------ 
------------------------------------------------------------------------------------------ 
------------------------------------------------------------------------------------------ 
------------------------------------------------------------------------------------------ #/4t2##/4t1#

play that through once, then go into the chorus with 
1:01  1:49 
#5t1##5t2#8-8-8--8--9--8--6---11--8-8-8--9--8--6---8-8-8--8--9--8--6---11-8-8-8--8--9--10^11 
-------------------------------------------------------------------------------------------------------- 
-------------------------------------------------------------------------------------------------------- 
-------------------------------------------------------------------------------------------------------- 
-------------------------------------------------------------------------------------------------------- 
-------------------------------------------------------------------------------------------------------- #/5t2##/5t1#

Bridge Part 1 
2:16 
P.M- - - - - - - - - - - - - - - - - - } 
#6t1##6t2#------------------------------------------- 
------------------------------------------- 
------------------------------------------- 
------------------------------------------- 
------------------------------------------- 
0--1-1--1-0-1--1--0--1-1--1-0-1--- #/6t2##/6t1#

Bridge Part 2- With wah 
2:35 
#7t1##7t2#8--8--11p8-8---8--8--9p8-8 
----------------------------------- 
----------------------------------- 
----------------------------------- 
----------------------------------- 
----------------------------------- #/7t2##/7t1#

Bridge Part 3- Use distortion 
2:44 
#8t1##8t2#------------------------------------------------- 
------------------------------------------------- 
------------------------------------------------- 
------------------------------------------------- 
0--0h1--1--4--4--1p0--0h1--1--4--4--1 
0--0h1--1--4--4--1p0--0h1--1--4--4--1 #/8t2##/8t1#

Outro- Lots of noise, distortion, wah and phaser 
3:13                  3:31 
#9t1##9t2#----------------------------------------------------- 
----------------------------------------------------- 
------------------------8\6--8\6--8\6--8\6-- 
3--4--1--3--4--1----6\4--6\4--6\4--6\4-- 
----------------------------------------------------- #/9t2##/9t1#
3:50 
9h11p9--11--12--11--9---9h11p9--11--12--14 
#10t1##10t2#------------------------------------------------------------ 
------------------------------------------------------------ 
------------------------------------------------------------ 
------------------------------------------------------------ 
------------------------------------------------------------ #/10t2##/10t1#
4:08 
11--11--12--11--9---11--12--14--11 
#11t1##11t2#--------------------------------------------- 
--------------------------------------------- 
--------------------------------------------- 
--------------------------------------------- 
--------------------------------------------- #/11t2##/11t1#
4:24                              (feedback) 
11--11--12--14-14-14-14-14-14-14-14-14-14-14-14 
#12t1##12t2#------------------------------------------------------------------- 
------------------------------------------------------------------- 
------------------------------------------------------------------- 
------------------------------------------------------------------- 
-------------------------------------------------------------------#/12t2##/12t1#
Composição: Jay Weinberg / Mick Thomson / Sid Wilson / Alessandro Venturella / Allan Rock / Anders Colsefni / Chris Fehn / Corey Taylor / Craig Jones / James Root / Jim Root / Joey Jordison / Josh Brainard / M. Shawn Crahan / Mick Thomson / Paul Gray / Ritch Ronnan / Shawn Crahan / Sid Wilson / Slipknot / Slipknot feat Linkin ParkColaboração e revisão: