All Hope Is Gone

Slipknot

Tom: G
#1t1#Intro Riff 1
#1t2#C#|---------------------------------------------|
G#|---------------------------------------------|
E|---------------------------------------------|
B|---------------------------------------------|
F#|-----------------0------------------0--------|
B|-6p3h6p3-7p4h7p4-0--6p3h6p3-7p4h7p4-0--------|#/1t2##/1t1#

#2t1#Intro Riff 1 Cont.
#2t2#C#|-----------------------------------------------------|
G#|-----------------------------------------------------|
E|-----------------------------------------------------|
B|-----------------------------------------------------|
F#|------------------0--8p5h8p5-------9p6h9p6-10p7h10p7-|
B|--6p3h6p3-7p4h7p4-0---------8p5h8p5------------------|#/2t2##/2t1#

Play all above twice!

#3t1#Intro Riff 2
#3t2#C#|---------------------------------|
G#|---------------------------------|
E|---------------------------------| X8
B|---------------------------------|
F#|-0-0-6-0-0-5-0-0-6-0-0-5-0-3-0-0-|
B|-0-0-6-0-0-5-0-0-6-0-0-5-0-3-0-0-|#/3t2##/3t1#
pm  . .   . .   . .   . .   .   .

#4t1#Bit Before Verse
#4t2#C#|--------------------------------|
G#|--------------------------------|
E|--------------------------------|
B|-3~~~~~~~~~~~~~~~~~~~~~~~~~~~~--|
F#|-0~~~~~~~~~~~~~~~~~~~~~~~~~~~~--|
B|-0~~~~~~~~~~~~~~~~~~~~~~~~~~~~--|#/4t2##/4t1#

#5t1#Verse riff 1| after the first four times, play:
#5t2#C#|----------------------------------|---------------------|
G#|----------------------------------|---------------------|
E|----------------------------------|X8-------------------|
B|----------------------------------|---------------------|
F#|---------9999999988888888---------|--------------12\\-6-|
B|-66666666----------------99999999-|--------------12\\-6-|#/5t2##/5t1#

#6t1##6t2#C#|--------------------------------|
G#|--------------------------------|
E|--------------------------------|
B|--------------------------------|
F#|-0~~~~~~~~~~~~~~~~~~~~~~~~~~~~--|
B|-0~~~~~~~~~~~~~~~~~~~~~~~~~~~~--|#/6t2##/6t1#

#7t1#Verse riff 2 
#7t2#C#|-------------------------------------------------------------------|
G#|-------------------------------------------------------------------|
E|-------------------------------------------------------------------|
B|-------------------------------------------------------------------|
F#|--------777777888888------------------555555777777888888-----------|
B|777777----------------1010101010101010--------------------66666666-|#/7t2##/7t1#

#8t1#Chorus (please listen to the song for the correct rhythm)
#8t2#C#|-----------------------------------------------------------|
G#|-----------------------------------------------------------|
E|-----------------------------------------------------------|
B|-00000000-888888-77-88-13131313131313-13-11111111-10101010-|
F#|-00000000-555555-77-88-13131313131313-13-13131313-12121212-|
B|-00000000-555555-77-88-13131313131313-13-------------------|#/8t2##/8t1#


#9t1##9t2#C#|---------------------------------------------------------|
G#|---------------------------------------------------------|
E|---------------------------------------------------------|
B|-00000000-888888-77-88-3--3-3-3-3-3-3/6-1--1-1-1-1-1-1-1-|
F#|-00000000-555555-77-88-3--3-3-3-3-3-3/6-1--1-1-1-1-1-1-1-|
B|-00000000-555555-77-88-3--3-3-3-3-3-3/6-1--1-1-1-1-1-1-1-|#/9t2##/9t1#
pm                           . . . . .        . . . . . . .

#10t1##10t2#C#|--------------------------------|
G#|--------------------------------|
E|--------------------------------|
B|--------------------------------|
F#|-0~~~~~~~~~~~~~~~~~~~~~~~~~~~~--|
B|-0~~~~~~~~~~~~~~~~~~~~~~~~~~~~--|#/10t2##/10t1#

#11t1#Solo breakdown (sorry, can't work out the solo)
#11t2#C#|-------------------------------------------------|
G#|-------------------------------------------------|
E|-------------------------------------------------|X2
B|-------------------------------------------------|
F#|-------------------------------------------------|
B|-0-3-6-0-3-5-0-3-6-0-0-5-0-3-0-0-----------------|#/11t2##/11t1#

#12t1##12t2#C#|-------------------------------------------------|
G#|-------------------------------------------------|
E|-------------------------------------------------|X8
B|-------------------------------------------------|
F#|-------------------------------------------------|
B|-0-3-6-0-3-5-0-3-6-0-0-5-0-3-0-0-----------------|#/12t2##/12t1#
pm  . . . . . . . . . . . . . . . . 

CHORUS

#13t1#Breakdown
#13t2#C#|-------------------------------------------------|
G#|-------------------------------------------------|
E|-------------------------------------------------|
B|------------------------------------//7\\//8\\---|
F#|-8--7--5-7-3-2~-1----8-7-5-7-3-2~-1--------------|
B|-8--7--5-7-3-2~-1----8-7-5-7-3-2~-1--------------|#/13t2##/13t1#
pm  .  .  . . .         . . . . .

#14t1##14t2#C#|-----------------------------------------------|
G#|-----------------------------------------------|
E|-----------------------------------------------|X2
B|------------------------------------//7\\//8\\-|
F#|-8-7-5-7-3-2~-1----8-7-5-7-3-2~-1--------------|
B|-8-7-5-7-3-2~-1----8-7-5-7-3-2~-1--------------|#/14t2##/14t1#
pm  . . . . .         . . . . .





#15t1##15t2#C#|-----------------------------------------------|
G#|-----------------------------------------------|
E|-----------------------------------------------|
B|-----------------------------------------------|
F#|-8-7-5-7-3-2~-1----8-7-5-7-3-2~-1--1--1--------|
B|-8-7-5-7-3-2~-1----8-7-5-7-3-2~-1--1--1--------|#/15t2##/15t1#
pm  . . . . .         . . . . .       .  .



#16t1##16t2#C#|-----------------------------------------------------|
G#|-----------------------------------------------------|
E|-----------------------------------------------------|
B|----------------------------------------//7\\//8\\---|
F#|-8--7--5-7-3-2~-1-1-1-1--8-7-5-7-3-2~-1--------------|
B|-8--7--5-7-3-2~-1-1-1-1--8-7-5-7-3-2~-1--------------|#/16t2##/16t1#
pm  .  .  . . .      . . .  . . . . .

#17t1##17t2#C#|----------------------------------------------------|
G#|----------------------------------------------------|
E|----------------------------------------------------| X2
B|-----------------------------------------//7\\//8\\-|
F#|-8-7-5-7-3-2~-1--1-1-1--8-7-5-7-3-2~-1--------------|
B|-8-7-5-7-3-2~-1--1-1-1--8-7-5-7-3-2~-1--------------|#/17t2##/17t1#
pm  . . . . .       . . .  . . . . .

#18t1##18t2#C#|----------------------------------------------------|
G#|----------------------------------------------------|
E|----------------------------------------------------|
B|----------------------------------------------------|
F#|-8-7-5-7-3-2~-1--1-1-1--8-7-5-7-3-2~-1--1--1--------|
B|-8-7-5-7-3-2~-1--1-1-1--8-7-5-7-3-2~-1--1--1--------|#/18t2##/18t1#
pm  . . . . .       . . .  . . . . .       .  .


VERSE RIFF 2 X2

#19t1#Verse riff 3 
#19t2#C#|------------------------------------------------------------------|
G#|------------------------------------------------------------------|
E|------------------------------------------------------------------| X2
B|---------7777777788888888--------555555557777777788888888---------|
F#|-55555555----------------88888888------------------------44444444-|
B|------------------------------------------------------------------|#/19t2##/19t1#


CHORUS X2

BREAKDOWN
Composição: SlipknotColaboração e revisão: Daniel Andrade