busca

Before I Forget

Slipknot

Tom: E
Afinação: B F# B E G# C#  (Drop B)
Intro:

C#|---------------------------------------------------
G#|---------------------------------------------------
E|---------------------------------------------------  (7x)
B|-0h2-x-0h2-x 3p2-x-0h2-x-2h3p2---------------------
F#|-0h2-x-0h2-x 3p2-x-0h2-x-2h3p2---------------------
B|-0h2-x-0h2-x 3p2-x-0h2-x-2h3p2---------------------

C#|---------------------------------------------------
G#|---------------------------------------------------
E|---------------------------------------------------
B|-0h2-x-0h2-x-3p2-- 5-5-0-0-5-5-0-0-----------------
F#|-0h2-x-0h2-x-3p2-- 5-5-0-0-5-5-0-0-----------------
B|-0h2-x-0h2-x-3p2---5-5-0-0-5-5-0-0-----------------

Go!

C#|---------------------------------------------------
G#|---------------------------------------------------
E|---------------------------------------------------  (3x)
B|-0h2-x-0h2-x 3p2-x-0h2-x-2h3p2---------------------
F#|-0h2-x-0h2-x 3p2-x-0h2-x-2h3p2---------------------
B|-0h2-x-0h2-x 3p2-x-0h2-x-2h3p2---------------------

C#|---------------------------------------------------
G#|---------------------------------------------------
E|---------------------------------------------------
B|-0h2-x-0h2-x-3p2-- 5-5-0-0-------------------------
F#|-0h2-x-0h2-x-3p2-- 5-5-0-0-------------------------
B|-0h2-x-0h2-x-3p2---5-5-0-0-------------------------

C#|---------------------------------------------------
G#|---------------------------------------------------
E|---------------------------------------------------  (3x)
B|-0h2-x-0h2-x 3p2-x-0h2-x-2h3p2---------------------
F#|-0h2-x-0h2-x 3p2-x-0h2-x-2h3p2---------------------
B|-0h2-x-0h2-x 3p2-x-0h2-x-2h3p2---------------------

C#|---------------------------------------------------
G#|---------------------------------------------------
E|---------------------------------------------------
B|-0h2-x-0h2-x-3p2-x--5-5-0-0-5-5-0-0----------------
F#|-0h2-x-0h2-x-3p2-x--5-5-0-0-5-5-0-0----------------
B|-0h2-x-0h2-x-3p2-x--5-5-0-0-5-5-0-0----------------


Primeira parte:
Stapled shut, inside an outside world and I'm
Sealed in tight, bizarre but right at home
Claustrophobic, closing in and I'm
Catastrophic, not again
I'm smeared across the page, and doused in gasoline
I wear you like a stain, yet I'm the one who's obscene
Catch me up on all your sordid little insurrections,
I've got no time to lose,
And I'm just caught up in all the cattle
Riff - Primeira parte:

Parte 1 de 2 - 3x:
C#|---------------------------------------------------
G#|---------------------------------------------------
E|---------------------------------------------------
B|-2-2-2-2-3---2-2-2-3-------------------------------
F#|-2-2-2-2-3---2-2-2-3-------------------------------
B|-2-2-2-2-3---2-2-2-3-------------------------------
  P.M. . . .   . . .

Parte 2 de 2
C#|---------------------------------------------------
G#|---------------------------------------------------
E|---------------------------------------------------
B|-2-2-2-2-3----5-5-0-0------------------------------
F#|-2-2-2-2-3----5-5-0-0------------------------------
B|-2-2-2-2-3----5-5-0-0------------------------------
  P.M. . .

Parte 1 de 2 - 3x:
C#|---------------------------------------------------
G#|---------------------------------------------------
E|---------------------------------------------------
B|-2-2-2-2-3---2-2-2-3-------------------------------
F#|-2-2-2-2-3---2-2-2-3-------------------------------
B|-2-2-2-2-3---2-2-2-3-------------------------------
  P.M. . . .   . . .

Parte 2 de 2
C#|---------------------------------------------------
G#|---------------------------------------------------
E|---------------------------------------------------
B|-2-2-2-2-3----5-5-0-0------------------------------
F#|-2-2-2-2-3----5-5-0-0------------------------------
B|-2-2-2-2-3----5-5-0-0------------------------------
  P.M. . .


Segunda Parte:
Fray the strings
Throw the shapes
Hold your breath
Listen!
Riff - Segunda Parte:

(Guitarra 1)
   H.A      .          .           .         .
C#|---------------------------------------------------
G#|---------------------------------------------------
E|---------------------------------------------------
B|-2-2-3-2-----2-2-3-2----2-2-3-2----2-2-3-2---------
F#|-2-2-3-2--4--2-2-3-2----2-2-3-2--4-2-2-3-2-2-------
B|-2-2-3-2-----2-2-3-2-2--2-2-3-2----2-2-3-2-2-------

(Guitarra 2)
C#|---------------------------------------------------
G#|---------------------------------------------------
E|-9--12--11--10--9--\-------------------------------
B|-------------------\-------------------------------
F#|-7--10--9---8---7--\-------------------------------
B|---------------------------------------------------

(Guitarra 3)
   H.A.      .      .      .
C#|---------------------------------------------------
G#|---------------------------------------------------
E|---------------------------------------------------
B|---------------------------------------------------
F#|---------------------------------------------------
B|--5-------2------5------2---------------------------

(Guitarra Adaptada)
   H.A.   ...       ...       ...         .
C#|---------------------------------------------------
G#|---------------------------------------------------
E|---------------------------------------------------
B|-2-2-3-----2-2-3-----2-2-3-----2-2-3-0-2-----------
F#|-2-2-3--4--2-2-3-----2-2-3-5-4-2-2-3-0-2-----------
B|-2-2-3-5---2-2-3-2-2-2-2-3-----2-2-3-0-2-----------


Refrão:
I am a worm before I am a man
I was a creature before I could stand
I will remember before I forget
BEFORE I FORGET THAT!

I am a worm before I am a man
I was a creature before I could stand
I will remember before I forget
BEFORE I FORGET THAT!
(Guitarra 1)
C#|---------------------------------------------------
G#|---------------------------------------------------
E|---------------------------------------------------
B|-2--3-2-5--0--5--0-7~--2--3-2-5--0--5--0-8p7-------
F#|-2--3-2-5--0--5--0-7~--2--3-2-5--0--5--0-8p7-------
B|-2--3-2-5--0--5--0-7~--2—-3-2-5--0--5--0-8p7-------

C#|---------------------------------------------------
G#|---------------------------------------------------
E|---------------------------------------------------
B|-2--3-2-5--0--5--0-8--7--7--7--8-7-10-5-5-5-8-8\7--
F#|-2--3-2-5--0--5--0-8--7--7--7--8-7-10-5-5-5-8-8\7--
B|-2—-3-2-5-—0--5--0-8--7--7--7--8-7-10-5-5-5-8-8\7--

C#|---------------------------------------------------
G#|---------------------------------------------------
E|---------------------------------------------------
B|-2--3-2-5--0--5--0-7~--2--3-2-5--0--5--0-8p7-------
F#|-2--3-2-5--0--5--0-7~--2--3-2-5--0--5--0-8p7-------
B|-2--3-2-5--0--5--0-7~--2—-3-2-5--0--5--0-8p7-------

C#|---------------------------------------------------
G#|---------------------------------------------------
E|------------------9--9---9-10-9-12-7-7-7-10-10\9---
B|-2--3-2-5-0-5-0-8----------------------------------
F#|-2--3-2-5-0-5-0-8 7--7--7--8--7-10-5-5-5-8--8-\7---
B|-2--3-2-5-0-5-0-8----------------------------------

(Intro)

C#|---------------------------------------------------
G#|---------------------------------------------------
E|---------------------------------------------------  (3x)
B|-0h2-x-0h2-x 3p2-x-0h2-x-2h3p2---------------------
F#|-0h2-x-0h2-x 3p2-x-0h2-x-2h3p2---------------------
B|-0h2-x-0h2-x 3p2-x-0h2-x-2h3p2---------------------

C#|---------------------------------------------------
G#|---------------------------------------------------
E|---------------------------------------------------
B|-0h2-x-0h2-x-3p2---5-5-0-0-5-5---------------------
F#|-0h2-x-0h2-x-3p2---5-5-0-0-5-5---------------------
B|-0h2-x-0h2-x-3p2---5-5-0-0-5-5---------------------

(Primeira parte)

(Riff Primeira parte)
I'm ripped across the ditch, and settled in the dirt and
I wear you like a stitch, yet I'm the one who's hurt
Pay attention to your twisted little indiscretions
I've got no right to win, I'm just caught up all the battles

(Segunda parte)
(Riff Segunda parte)
Locked in clutch
Pushed in place
Hold your breath
Listen!

(Refrão)
(Riff Rerrão)
I am a worm before I am a man
I was a creature before I could stand
I will remember before I forget
BEFORE I FORGET THAT!

I am a world before I am a man
I was a creature before I could stand
I will remember before I forget
BEFORE I FORGET THAT!

(Instrumental)
Terceira parte:

(Guitarra 1)

C#|---------------------------------------------------
G#|---------------------------------------------------
E|---------------------------------------------------  (7x)
B|-0h2-x-0h2-x 3p2-x-0h2-x-2h3p2---------------------
F#|-0h2-x-0h2-x 3p2-x-0h2-x-2h3p2---------------------
B|-0h2-x-0h2-x 3p2-x-0h2-x-2h3p2---------------------

C#|--------------------------------------------------
G#|--------------------------------------------------
E|--------------------------------------------------
B|-5-5-5-5-5-5-5-4--4-5-5-5-5-5-5-4-5-5-5-5-5-5-4-5-
F#|--------------------------------------------------
B|--------------------------------------------------

C#|--------------------------------------------------
G#|--------------------------------------------------
E|--------------------------------------------------
B|-5-7--5-5-4--5-5-5-5-5-5-4--5-5-5-5-5-5-4---------
F#|--------------------------------------------------
B|--------------------------------------------------

C#|--------------------------------------------------
G#|--------------------------------------------------
E|--------------------------------------------------
B|--5-5-5-5-5-5-4--5-5-7-5--------------------------
F#|--------------------------------------------------
B|--------------------------------------------------

C#|--------------------------------------------------
G#|--------------------------------------------------
E|--------------------------------------------------
B|-/12--10-10-9-7-7/-10-10-9-9-7-7-5-5-7-7----------
F#|--------------------------------------------------
B|--------------------------------------------------

C#|--------------------------------------------------
G#|--------------------------------------------------
E|--------------------------------------------------
B|-5-4/-7--5-4--5-5-4-5-5-5-5-5-5-5-4-5-5-5-5-5-5-4-
F#|--------------------------------------------------
B|--------------------------------------------------

C#|--------------------------------------------------
G#|--------------------------------------------------
E|--------------------------------------------------
B|-5-5-5-5-5-5-5-7---5-5-9\-------------------------
F#|--------------------------------------------------
B|--------------------------------------------------

Terceira Parte:
My end
It justifies my means
All I ever do is delay
My every attempt to evade
The end of the road and my end
It justifies my means
All I ever do is delay
My every attempt to evade
THE END OF THE ROAD!

C#|--------------------------------------------------
G#|--------------------------------------------------
E|--------------------------------------------------
B|--------------------------------------------------
F#|--0-2-0-2-3-2-0-2-0-2-0-2-3-2-0-2-----------------
B|--------------------------------------------------

C#|--------------------------------------------------
G#|--------------------------------------------------
E|--------------------------------------------------
B|--------------------------------------------------
F#|--2-3-2-3-2-3-2-3-0-2-0-2-3-2-0-2-----------------
B|--------------------------------------------------

C#|--------------------------------------------------
G#|--------------------------------------------------
E|--------------------------------------------------
B|--------------------------------------------------
F#|--2-3-2-3-5-3-2-3-2-3-2-3-5-3-2-3-----------------
B|--------------------------------------------------

(Guitarra 2 - 2x)
C#|--------------------------------------------------
G#|--------------------------------------------------
E|--------------------------------------------------
B|--------------------------------------------------
F#|-3-3-3-3-3-3-5—0-0-0-0-0-0-2--2-2-2-2-2-----------
B|-3-3-3-3-3-3-5—0-0-0-0-0-0-2--2-2-2-2-2-----------

C#|--------------------------------------------------
G#|--------------------------------------------------
E|--------------------------------------------------
B|--------------------------------------------------
F#|-2—2-2-5---2-5------------------------------------
B|--------------------------------------------------

(Variação)
C#|--------------------------------------------------
G#|--------------------------------------------------
E|--------------------------------------------------
B|-4-4-4-7---4-7------------------------------------
F#|-2—2-2-5---2-5------------------------------------
B|--------------------------------------------------


(Repete guitarra 2 instrumental)

(Refrão)
(Riff Rerrão)
I am a worm before I am a man
I was a creature before I could stand
I will remember before I forget
BEFORE I FORGET THAT!

I am a worm before I am a man
I was a creature before I could stand
I will remember before I forget
BEFORE I FORGET THAT!

I am a worm before I am a man
I was a creature before I could stand
I will remember before I forget
BEFORE I FORGET THAT!

(Riff Introdução)
Yeah, yeah, yeah, yeah
Yeah, yeah, yeah, OH!

C#|---------------------------------------------------
G#|---------------------------------------------------
E|---------------------------------------------------  (7x)
B|-0h2-x-0h2-x 3p2-x-0h2-x-2h3p2---------------------
F#|-0h2-x-0h2-x 3p2-x-0h2-x-2h3p2---------------------
B|-0h2-x-0h2-x 3p2-x-0h2-x-2h3p2---------------------

C#|---------------------------------------------------
G#|---------------------------------------------------
E|---------------------------------------------------
B|-0h2-x-0h2-x-3p2-- 5-5-0-0-5-5-0-0-----------------
F#|-0h2-x-0h2-x-3p2-- 5-5-0-0-5-5-0-0-----------------
B|-0h2-x-0h2-x-3p2---5-5-0-0-5-5-0-0-----------------

Clipes

Cifra Club Pro

Aproveite o Cifra Club com benefícios exclusivos e sem anúncios
7 dias grátis
Cifra Club Pro
Aproveite o Cifra Club com benefícios exclusivos e sem anúncios
7 dias grátis