Before I Forget

Slipknot

Tom: G
Afinação: B F# B E G# C#  (Drop B)

[Intro]

#1t1#[Tab - Intro]

Parte 1 De 5
#1t2#E|---------------------------------------------------|
B|---------------------------------------------------|
G|---------------------------------------------------| (7x)
D|-0h2-x-0h2-x-3p2-x-0h2-x-2h3p2---------------------|
A|-0h2-x-0h2-x-3p2-x-0h2-x-2h3p2---------------------|
E|-0h2-x-0h2-x-3p2-x-0h2-x-2h3p2---------------------|#/1t2##/1t1#

#2t1#Parte 2 de 5
#2t2#E|---------------------------------------------------|
B|---------------------------------------------------|
G|---------------------------------------------------|
D|-0h2-x-0h2-x-3p2---5-5-0-0-5-5-0-0-----------------|
A|-0h2-x-0h2-x-3p2---5-5-0-0-5-5-0-0-----------------|
E|-0h2-x-0h2-x-3p2---5-5-0-0-5-5-0-0-----------------|#/2t2##/2t1#

Go!

#3t1#Parte 3 de 5
#3t2#E|---------------------------------------------------|
B|---------------------------------------------------|
G|---------------------------------------------------| (3x)
D|-0h2-x-0h2-x-3p2-x-0h2-x-2h3p2---------------------|
A|-0h2-x-0h2-x-3p2-x-0h2-x-2h3p2---------------------|
E|-0h2-x-0h2-x-3p2-x-0h2-x-2h3p2---------------------|#/3t2##/3t1#

#4t1#Parte 4 de 5
#4t2#E|---------------------------------------------------|
B|---------------------------------------------------|
G|---------------------------------------------------|
D|-0h2-x-0h2-x-3p2---5-5-0-0-------------------------|
A|-0h2-x-0h2-x-3p2---5-5-0-0-------------------------|
E|-0h2-x-0h2-x-3p2---5-5-0-0-------------------------|#/4t2##/4t1#

#5t1#Parte 5 de 5
#5t2#E|---------------------------------------------------|
B|---------------------------------------------------|
G|---------------------------------------------------| (3x)
D|-0h2-x-0h2-x-3p2-x-0h2-x-2h3p2---------------------|
A|-0h2-x-0h2-x-3p2-x-0h2-x-2h3p2---------------------|
E|-0h2-x-0h2-x-3p2-x-0h2-x-2h3p2---------------------|#/5t2##/5t1#

#6t1##6t2#E|---------------------------------------------------|
B|---------------------------------------------------|
G|---------------------------------------------------|
D|-0h2-x-0h2-x-3p2-x--5-5-0-0-5-5-0-0----------------|
A|-0h2-x-0h2-x-3p2-x--5-5-0-0-5-5-0-0----------------|
E|-0h2-x-0h2-x-3p2-x--5-5-0-0-5-5-0-0----------------|#/6t2##/6t1#

[Primeira Parte]

#7t1#[Tab - Primeira Parte]

Parte 1 de 2 - 3x
#7t2#E|---------------------------------------------------|
B|---------------------------------------------------|
G|---------------------------------------------------|
D|-2-2-2-2-3---2-2-2-3-------------------------------|
A|-2-2-2-2-3---2-2-2-3-------------------------------|
E|-2-2-2-2-3---2-2-2-3-------------------------------|
  P.M. . .     . . .#/7t2##/7t1#

#8t1#Parte 2 de 2
#8t2#E|---------------------------------------------------|
B|---------------------------------------------------|
G|---------------------------------------------------|
D|-2-2-2-2-3----5-5-0-0------------------------------|
A|-2-2-2-2-3----5-5-0-0------------------------------|
E|-2-2-2-2-3----5-5-0-0------------------------------|
  P.M. . .#/8t2##/8t1#

Stapled shut, inside an outside world and I'm
Sealed in tight, bizarre but right at home
Claustrophobic, closing in and I'm
Catastrophic, not again
I'm smeared across the page
And doused in gasoline
I wear you like a stain
Yet I'm the one who's obscene
Catch me up on all your sordid little insurrections,
I've got no time to lose,
And I'm just caught up in all the cattle

[Segunda Parte]

[Tab - Segunda Parte]

Guitarra 1
   H.A      .          .           .         .
#9t1##9t2#E|---------------------------------------------------|
B|---------------------------------------------------|
G|---------------------------------------------------|
D|-2-2-3-2-----2-2-3-2----2-2-3-2----2-2-3-2---------|
A|-2-2-3-2--4--2-2-3-2----2-2-3-2--4-2-2-3-2-2-------|
E|-2-2-3-2-----2-2-3-2-2--2-2-3-2----2-2-3-2-2-------|#/9t2##/9t1#

#10t1#Guitarra 2
#10t2#E|---------------------------------------------------|
B|---------------------------------------------------|
G|-9--12--11--10-------------------------------------|
D|---------------------------------------------------|
A|-7--10--9---8--------------------------------------|
E|---------------------------------------------------|#/10t2##/10t1#

Guitarra 3
   H.A.      .      .      .
#11t1##11t2#E|---------------------------------------------------|
B|---------------------------------------------------|
G|---------------------------------------------------|
D|---------------------------------------------------|
A|---------------------------------------------------|
E|--5-------2------5------2---------------------------|#/11t2##/11t1#

Guitarra Adaptada
   H.A.   ...       ...       ...         .
#12t1##12t2#E|---------------------------------------------------|
B|---------------------------------------------------|
G|---------------------------------------------------|
D|-2-2-3-----2-2-3-----2-2-3-----2-2-3-0-2-----------|
A|-2-2-3--4--2-2-3-----2-2-3---4-2-2-3-0-2-----------|
E|-2-2-3-5---2-2-3-2-2-2-2-3-5---2-2-3-0-2-----------|#/12t2##/12t1#

Fray the strings
Throw the shapes
Hold your breath
Listen!
Riff - Segunda Parte:

[Refrão]

[Tab - Refrão]

Guitarra 1

#13t1#Parte 1 de 2
#13t2#E|---------------------------------------------------|
B|---------------------------------------------------|
G|---------------------------------------------------|
D|-2--3-2-5--0--5--0-7~--2--3-2-5--0--5--0-8\7-------|
A|-2--3-2-5--0--5--0-7~--2--3-2-5--0--5--0-8\7-------|
E|-2--3-2-5--0--5--0-7~--2-| —3-2-5--0--5--0-8\7-------|#/13t2##/13t1#

#14t1#Parte 2 de 2
#14t2#E|---------------------------------------------------|
B|---------------------------------------------------|
G|---------------------------------------------------|
D|-2--3-2-5--0--5--0-8--7--7--7--8-7-10-5-5-5-8-8-7--|
A|-2--3-2-5--0--5--0-8--7--7--7--8-7-10-5-5-5-8-8-7--|
E|-2--3-2-5-| —0--5--0-8--7--7--7--8-7-10-5-5-5-8-8-7--|#/14t2##/14t1#

Guitarra 2

#15t1#Parte 2 de 2
#15t2#E|---------------------------------------------------|
B|---------------------------------------------------|
G|------------------9--9--9-10-9-12-7-7-7/10---9-----|
D|-2--3-2-5-0-5-0-8----------------------------------|
A|-2--3-2-5-0-5-0-8-7--7--7-8--7-10-5-5-5/8----7-----|
E|-2--3-2-5-0-5-0-8----------------------------------|#/15t2##/15t1#

I am a worm before I am a man
I was a creature before I could stand
I will remember before I forget
BEFORE I FORGET THAT!

I am a worm before I am a man
I was a creature before I could stand
I will remember before I forget
BEFORE I FORGET THAT!

#16t1#[Tab Intro]

Parte 1 De 2
#16t2#E|---------------------------------------------------|
B|---------------------------------------------------|
G|---------------------------------------------------| (3x)
D|-0h2-x-0h2-x-3p2-x-0h2-x-2h3p2---------------------|
A|-0h2-x-0h2-x-3p2-x-0h2-x-2h3p2---------------------|
E|-0h2-x-0h2-x-3p2-x-0h2-x-2h3p2---------------------|#/16t2##/16t1#

#17t1#Parte 2 de 5
#17t2#E|---------------------------------------------------|
B|---------------------------------------------------|
G|---------------------------------------------------|
D|-0h2-x-0h2-x-3p2---5-5-0-0-5-5---------------------|
A|-0h2-x-0h2-x-3p2---5-5-0-0-5-5---------------------|
E|-0h2-x-0h2-x-3p2---5-5-0-0-5-5---------------------|#/17t2##/17t1#

[Primeira Parte - Variação Letra]

I'm ripped across the ditch
And settled in the dirt and
I wear you like a stitch
Yet I'm the one who's hurt
Pay attention to your twisted little indiscretions
I've got no right to win
I'm just caught up all the battles

[Segunda Parte - Variação Letra]

Locked in clutch
Pushed in place
Hold your breath
Listen!

[Refrão]

I am a worm before I am a man
I was a creature before I could stand
I will remember before I forget
BEFORE I FORGET THAT!

I am a world before I am a man
I was a creature before I could stand
I will remember before I forget
BEFORE I FORGET THAT!

[Instrumental]

#18t1#Parte 1 de 9
#18t2#E|--------------------------------------------------|
B|--------------------------------------------------|
G|--------------------------------------------------|
D|-5-5-5-5-5-5-5-4--4-5-5-5-5-5-5-4-5-5-5-5-5-5-4-5-|
A|--------------------------------------------------|
E|--------------------------------------------------|#/18t2##/18t1#

#19t1#Parte 2 de 9
#19t2#E|--------------------------------------------------|
B|--------------------------------------------------|
G|--------------------------------------------------|
D|-5-7--5-5-4--5-5-5-5-5-5-4--5-5-5-5-5-5-4---------|
A|--------------------------------------------------|
E|--------------------------------------------------|#/19t2##/19t1#

#20t1#Parte 3 de 9
#20t2#E|--------------------------------------------------|
B|--------------------------------------------------|
G|--------------------------------------------------|
D|--5-5-5-5-5-5-4--5-5-7-5--------------------------|
A|--------------------------------------------------|
E|--------------------------------------------------|#/20t2##/20t1#

#21t1#Parte 4 de 9
#21t2#E|--------------------------------------------------|
B|--------------------------------------------------|
G|--------------------------------------------------|
D|-12-12-10-10-9-9-7-7-10-10-9-9-7-7-5-5-9-9-7-7-5-5|
A|--------------------------------------------------|
E|--------------------------------------------------|#/21t2##/21t1#

#22t1#Parte 5 de 9
#22t2#E|--------------------------------------------------|
B|--------------------------------------------------|
G|--------------------------------------------------|
D|4-4-7-7-5-5-4--5-5-4-5-5-5-5-5-5-5-4-5-5-5-5-5-5-4|
A|--------------------------------------------------|
E|--------------------------------------------------|#/22t2##/22t1#

#23t1#Parte 6 de 9
#23t2#E|--------------------------------------------------|
B|--------------------------------------------------|
G|--------------------------------------------------|
D|-5-5-5-5-5-5-5-7---5-5-9\-------------------------|
A|--------------------------------------------------|
E|--------------------------------------------------|#/23t2##/23t1#

[Terceira Parte]

My end
It justifies my means
All I ever do is delay
My every attempt to evade
The end of the road and my end
It justifies my means
All I ever do is delay
My every attempt to evade
THE END OF THE ROAD!

#24t1#Parte 7 de 9
#24t2#E|--------------------------------------------------|
B|--------------------------------------------------|
G|--------------------------------------------------|
D|--------------------------------------------------|
A|--0-2-0-2-3-2-0-2-0-2-0-2-3-2-0-2-----------------|
E|--------------------------------------------------|#/24t2##/24t1#

#25t1#Parte 8 de 9
#25t2#E|--------------------------------------------------|
B|--------------------------------------------------|
G|--------------------------------------------------|
D|--------------------------------------------------|
A|--2-3-2-3-2-3-2-3-0-2-0-2-3-2-0-2-----------------|
E|--------------------------------------------------|#/25t2##/25t1#

#26t1#Parte 9 de 9
#26t2#E|--------------------------------------------------|
B|--------------------------------------------------|
G|--------------------------------------------------|
D|--------------------------------------------------|
A|--2-3-2-3-5-3-2-3-2-3-2-3-5-3-2-3-----------------|
E|--------------------------------------------------|#/26t2##/26t1#

Guitarra 2

#27t1#Parte 1 de 2
#27t2#E|--------------------------------------------------|
B|--------------------------------------------------|
G|--------------------------------------------------|
D|--------------------------------------------------|
A|-3-3-3-3-3-3-5-| —0-0-0-0-0-0-2--2-2-2-2-2----------|
E|-3-3-3-3-3-3-5-| —0-0-0-0-0-0-2--2-2-2-2-2----------|#/27t2##/27t1#

#28t1#Parte 2 de 2
#28t2#E|--------------------------------------------------|
B|--------------------------------------------------|
G|--------------------------------------------------|
D|--------------------------------------------------|
A|-2-| —2-2-5---2-5-----------------------------------|
E|--------------------------------------------------|#/28t2##/28t1#

#29t1#Parte 2 de 2 - Variação
#29t2#E|--------------------------------------------------|
B|--------------------------------------------------|
G|--------------------------------------------------|
D|-4-4-4-7---4-7------------------------------------|
A|-2-2-2-5---2-5------------------------------------|
E|--------------------------------------------------|#/29t2##/29t1#

[Refrão]

I am a worm before I am a man
I was a creature before I could stand
I will remember before I forget
BEFORE I FORGET THAT!

I am a worm before I am a man
I was a creature before I could stand
I will remember before I forget
BEFORE I FORGET THAT!

I am a worm before I am a man
I was a creature before I could stand
I will remember before I forget
BEFORE I FORGET THAT!

Yeah, yeah, yeah, yeah
Yeah, yeah, yeah, OH!

#30t1#Parte 1 de 5
#30t2#E|---------------------------------------------------|
B|---------------------------------------------------|
G|---------------------------------------------------| (7x)
D|-0h2-x-0h2-x-3p2-x-0h2-x-2h3p2---------------------|
A|-0h2-x-0h2-x-3p2-x-0h2-x-2h3p2---------------------|
E|-0h2-x-0h2-x-3p2-x-0h2-x-2h3p2---------------------|#/30t2##/30t1#

#31t1#Parte 2 de 5
#31t2#E|---------------------------------------------------|
B|---------------------------------------------------|
G|---------------------------------------------------|
D|-0h2-x-0h2-x-3p2---5-5-0-0-5-5-0-0-----------------|
A|-0h2-x-0h2-x-3p2---5-5-0-0-5-5-0-0-----------------|
E|-0h2-x-0h2-x-3p2---5-5-0-0-5-5-0-0-----------------|#/31t2##/31t1#
Composição: Chris Fehn / Corey Taylor / Craig Jones / James Root / Joey Jordison / Mick Thomson / Paul Gray / Shawn Crahan / Ty WilsonColaboração e revisão: Lucas KappaunRenan SantosTarsius LimaFilipe Albarracim
Videoaula Before I Forget (aula de guitarra)