Cakes Taste Nice

Slipknot

Tom: G
#1t1##1t2#|-------5-----5-----5-5---------------|
|------4-----4-----4---4--------------|
|-----3-----3-----3-----3-------------|
|----2-----2-----2-------2-----5*-----|
|---1-----1-----1---------1-----------|
|--0-----0-----0-----------0----------|#/1t2##/1t1#

#2t1#(riff principal)
#2t2#|----4----------3-------------7-------|
|-------3-3-3----3------------6----4--|
|-----------------3-----------5-------|
|-----------------------------12------|
|-------------4-------6----7--1-------|
|-----------------------------21------|#/2t2##/2t1#

#3t1##3t2#|--2----------------------------------|
|--21---------------------------------|
|--3----------------------------------|
|--15---------------------------------|
|--12---------------------------------|
|--8---20--1---1---1---5---3---5--7---|#/3t2##/3t1#

#4t1#(solo)
#4t2#|-1---1---1---1---1---1---1----1---1-|
|----------------------------------1-|
|------------------------------------|
|------------------------------------|
|------------------------------------|
|------------------------------------|#/4t2##/4t1#

#5t1#(outro)
#5t2#|13----4---------4------2-------9---1------|
|--4--------5----6------4---3------5-------|
|----3---2-----2-----3---------3-----------|
|-----------2--13---4-----3-------7--------|
|---5----4--------7-6---------1------------|#/5t2##/5t1#

#6t1##6t2#|-9-----------------------------------|#/6t2##/6t1#

Composição: Jay Weinberg / Mick Thomson / Sid Wilson / Alessandro Venturella / Allan Rock / Anders Colsefni / Chris Fehn / Corey Taylor / Craig Jones / James Root / Jim Root / Joey Jordison / Josh Brainard / M. Shawn Crahan / Mick Thomson / Paul Gray / Ritch Ronnan / Shawn Crahan / Sid Wilson / Slipknot / Slipknot feat Linkin ParkColaboração e revisão: Lucas Lago