Tom: G
Tuning=Dropped C Low to High- C,G,C,F,A,D
B=Bend
~=Vibrato
H=Hammer On

Dude's they were on crack when they did this lol alright this tab is pretty wrong but i got some
 elements down ;) remember it never hurts to tab a song even it's wrong, people get an idea of
 it and figure out the rest.


Fig1A
(0:18-0:55)
#1t1##1t2#D|--------------------------------------|
A|--------------------------------------|
F|--------------------------------------|
C|--------------------------------------|
G|---4---4---4--------------------------|
C|-4---4---4---4-1-3---1----------------|#/1t2##/1t1#

Fig1B
(0:37-0:55)
#2t1##2t2#D|-------------------------------|
A|--7?---3?---5?-----------------|
F|-------------------------------|
C|-------------------------------|
G|-------------------------------|
C|-------------------------------|#/2t2##/2t1#
2nd guitar does weird freaky *** ***in just flip out on your guitar MAN!.

"They're Doing Something Rather Curious With The Parts Of The Body In A Way We Don't Fully Understand"


Fig2 Both Guitars
(0:56-1:14)
#3t1##3t2#D|------------------------------------|
A|-9b-9b-9b-9b---9b-9b-7b-9b-9b-9b-9b-|
F|------------------------------------|
C|------------------------------------|
G|------------------------------------|
C|------------------------------------|#/3t2##/3t1#

Fig3
(1:15-1:32)
#4t1##4t2#D|--14--14--14--------13--13--13-----|-13~-|
A|18--18--18--18-15~-17--17--17--15~-|-17~-|
F|-----------------------------------|-----|
C|-----------------------------------|-----|
G|-----------------------------------|-----|
C|-----------------------------------|-----|#/4t2##/4t1#

Fig4
(1:33-1:45/6)
#5t1##5t2#D|-------------------------------|
A|-------------------------------|
F|-------------------------------|
C|-0h3-0h3-0h3-0h3-4-4-0---------|
G|-0h3-0h3-0h3-0h3-4-4-0---------|
C|-0h3-0h3-0h3-0h3-4-4-0---------|#/5t2##/5t1#

Fig5
(1:46-1:47/8)
#6t1##6t2#D|-----------------------------------|
A|-----------------------------------|
F|-----------------------------------|
C|-0h3-0h3-0h3-0h3-6-6-6-1-----------|
G|-0h3-0h3-0h3-0h3-6-6-6-1-----------|
C|-0h3-0h3-0h3-0h3-6-6-6-1-----------|#/6t2##/6t1#

Fig6
(1:48-2:02)
#7t1##7t2#D|---------------------------------------------------------------|
A|---------------------------------------------------------------|
F|---------------------------------------------------------------|
C|-3-3-3--3-3-3-3--3-3-3--3-3-3-3--3-3-3--3-3-3-3--3-3-3-6-6-6-1-|
G|-3-3-3--3-3-3-3--3-3-3--3-3-3-3--3-3-3--3-3-3-3--3-3-3-6-6-6-1-|
C|-3-3-3--3-3-3-3--3-3-3--3-3-3-3--3-3-3--3-3-3-3--3-3-3-6-6-6-1-|#/7t2##/7t1#

"Some Word's They'll Never Clean"

Fig7
(2:03-2:08/9)
#8t1##8t2#D|------------------|
A|------------------|
F|------------------|
C|-3-3-3-1-0h3------|
G|-3-3-3-1-0h3------|
C|-3-3-3-1-0h3------|#/8t2##/8t1#

(2:09-2:21)
Repeat Fig1B
Mumbling


Fig8
(2:22-2:35)
#9t1##9t2#D|-----------------------------|
A|-----------------------------|
F|-----------------------------|
C|-0h3--4~--0h3--4~--0h3--4~---|
G|-0h3--4~--0h3--4~--0h3--4~---|
C|-0h3--4~--0h3--4~--0h3--4~---|#/9t2##/9t1#
"(Carve!)There's Something Inside (Carve!) There's Nothing Inside
(Carve!) There's Something Inside (Carve!) O GOD I LOVE YOU!
(Carve!) There's Something Inside (Carve!) There's Nothing Inside
(Carve!) There's Nothing Inside (Carve!)"

Fig9
(2:36-2:40)
#10t1##10t2#D|------------|
A|------------|
F|------------|
C|-0~~~-------|
G|-0~~~-------|
C|-0~~~-------|#/10t2##/10t1#
Weird Stuff""


Fig10
(2:43-2:49)
#11t1##11t2#D|-------------------------------|
A|-------------------------------|
F|-------------------------------|
C|-------------------------------|
G|-------------------------------|
C|-------------------------------|#/11t2##/11t1#
Funk Stuff^(couldn't figure it out i don't have a wah pedal 
to do the weird *** lol)

Fig11A
(2:50-3:03)
#12t1##12t2#D|--------------------|
A|--------------------|
F|--------------------|
C|-0----0-0-0-0-------|
G|-0----0-0-0-0-------|
C|-0----0-0-0-0-------|#/12t2##/12t1#

Fig11B
(2:50-3:03)
#13t1##13t2#D|-------------------------------|
A|-------------------------------|
F|-------------------------------|
C|-------------------------------|
G|-------------------------------|
C|-------------------------------|#/13t2##/13t1#
Do some weird harmonic stuff right 
here(couldn't figure it out)


Fig12
(3:04-3:17)
#14t1##14t2#D|-------------------------------|
A|-------------------------------|
F|-------------------------------|
C|-------------------------------|
G|-------------------------------|
C|-------------------------------|#/14t2##/14t1#

Fig13
(3:18-3:44)
#15t1##15t2#D|-------------------------------|
A|-------------------------------|
F|-------------------------------|
C|-------------------------------|
G|-------------------------------|
C|-------------------------------|#/15t2##/15t1#

Fig14
(3:45-4:00 END)
#16t1##16t2#D|-------------------------------|
A|-------------------------------|
F|-------------------------------|
C|-------------------------------|
G|-------------------------------|
C|-------------------------------|#/16t2##/16t1#
Composição: Colaboração e revisão: