busca

Circle

Slipknot

Tom: G
Em
Give me the dust of my father
Em
Stand on the face of the ancients
Em
Bare the secret flesh of time itself
Em
Follow me... I've come so far, I'm behind again
Em
Follow me... I Wish so hard, I'm there again
Em
Follow me... follow me
D          Am           C                Em
All that I wanted were things I had before
D          Am         C           Em
All that I needed, I never needed more
D          Am           C             Em
All of my questions are answers to my sins
D          Am          C               Em
And all of my endings are waiting to begin
Em
I know the way, but I falter
Em
I can't be afraid of my patience
Em
There's a sacred place Razel keeps safe
Em
Follow me... I've seen so much I'm blind again
Em
Follow me... I feel so bad I'm alive again
Em
Follow me
D          Am           C                Em
All that I wanted were things I had before
D          Am         C           Em
All that I needed, I never needed more
D          Am           C              Em
All of my questions are answers to my sins
D          Am           C              Em
And all of my endings are waiting to begin

[Solo] C  G  Em

E|----------12---------------------15--------------------7-----|
B|------13------13------13------15-----15------15-----8-----8--|
G|--12--------------12------12-------------12------9-----------|
D|-------------------------------------------------------------|
A|-------------------------------------------------------------|
E|-------------------------------------------------------------|

E|--------------7---------------------12----------------------|
B|-----8-----8-----8-----8---------13------13------13------15-|
G|--9-----9-----------9-------12--------------12------12------|
D|------------------------------------------------------------|
A|------------------------------------------------------------|
E|------------------------------------------------------------|

E|--15--------------------7-------------------7-----------|
B|------15------15-----8-----8-------8-----8-----8-----8--|
G|----------12------9-------------9-----9-----------9-----|
D|--------------------------------------------------------|
A|--------------------------------------------------------|
E|--------------------------------------------------------|

E|----------12------------------------15--------------------7----|
B|------13------13------13------15--------15------15-----8-----8-|
G|--12--------------12------12----------------12------9----------|
D|---------------------------------------------------------------|
A|---------------------------------------------------------------|
E|---------------------------------------------------------------|

E|--------------7---------------------12----------------------|
B|-----8-----8-----8-----8--------13------13------13------15--|
G|--9-----9-----------9-------12--------------12------12------|
D|------------------------------------------------------------|
A|------------------------------------------------------------|
E|------------------------------------------------------------|

E|--15--------------------7-------------------7-----------|
B|------15------15-----8-----8-------8-----8-----8-----8--|
G|----------12------9-------------9-----9-----------9-----|
D|--------------------------------------------------------|
A|--------------------------------------------------------|
E|--------------------------------------------------------|

Clipes

Cifra Club Pro

Aproveite o Cifra Club com benefícios exclusivos e sem anúncios
Cifra Club Pro
Aproveite o Cifra Club com benefícios exclusivos e sem anúncios