busca

Confessions Intro

Slipknot

G----------10h9------------9-12h11h10----------10h9---9----
D------------------------10----------9---------------------
A------12--------------10-------------------12-------------
E----10---------8----8-------------------10---------8------

G--------9h10h9---------
D-----10-------10-------
A---10-----------10-----
E-8---------------------

i love the bass in this song..hopefully i can get the rest.."hopefully"

Clipes

Cifra Club Pro

Aproveite o Cifra Club com benefícios exclusivos e sem anúncios
Cifra Club Pro
Aproveite o Cifra Club com benefícios exclusivos e sem anúncios