Confessions Solo

Slipknot

Tom: G
Tabbed by Tinboy


This is just the solo, the rest of the song is really easy anyway.

timing: 2:42 - 3:15 (the solo ends on 3:22, but i havnt finished it yet)

#1t1##1t2#|-------------------------------------------------------8-5--------------|
|----------------------------------------8-6-5--10-8-7------8-6v---------|
|-------------------------------1h3/7v-----------------------------------|
|--------------------------1h2h3-----------------------------------------|
|-------5-------------1h2h3----------------------------------------------|
|---6-6---6-\1---1h2h3---------------------------------------------------|#/1t2##/1t1#

#2t1##2t2#|---/8-/10-10v--10-13-15-15b-(17)-15-13-10-8-10v-------------------------|
|------------------------------------------------------------------------|
|------------------------------------------------------------------------|
|------------------------------------------------------------------------|
|------------------------------------------------------------------------|
|------------------------------------------------------------------------|#/2t2##/2t1#

#3t1##3t2#|------------------------------------------------------------------------|
|---5h7/9b--9v-8v-6v-8v-7br----------------------------------------------|
|---------------------------5v-7v----------------------------------------|
|------------------------------------------------------------------------|
|------------------------------------------------------------------------|
|------------------------------------------------------------------------|#/3t2##/3t1#

#4t1##4t2#|------------------------------------------------------------------------|
|----------------------------------------------------13-11-10-15-13-12---|
|-----------------------------------12-10-9-14-12-11---------------------|
|-----------11-10-9---------12-10-9--------------------------------------|
|---11-10-9---------11-10-9----------------------------------------------|
|------------------------------------------------------------------------|#/4t2##/4t1#

#5t1##5t2#|---13-11-10-------------------------------------------------------------|
|------------13-11-10-----------------14br-------------------------------|
|---------------------12-10-12b-12-10------12-14b--14p13p12--------------|
|-----------------------------------------------------------14p13p12v----|
|------------------------------------------------------------------------|
|------------------------------------------------------------------------|#/5t2##/5t1#

#6t1##6t2#|------------------------------------------------------------------------|
|---11tp--13tp--15tp--17tp-----------------------------------------------|
|---13tp--15tp--17tp--19tp-----------------------------------------------|
|------------------------------------------------------------------------|
|------------------------------------------------------------------------|
|------------------------------------------------------------------------|#/6t2##/6t1#

#7t1##7t2#|---20b-20-18-17-16-15-13-12-10-8-10br-----------------------------------|
|------------------------------------------------------------------------|
|------------------------------------------------------------------------|
|------------------------------------------------------------------------|
|------------------------------------------------------------------------|
|------------------------------------------------------------------------|#/7t2##/7t1#

then im afraid thats as far as ive got so far,
i should have the rest of it up soon though.

any queries or corrections email - *
Composição: Jay Weinberg / Mick Thomson / Sid Wilson / Alessandro Venturella / Allan Rock / Anders Colsefni / Chris Fehn / Corey Taylor / Craig Jones / James Root / Jim Root / Joey Jordison / Josh Brainard / M. Shawn Crahan / Mick Thomson / Paul Gray / Ritch Ronnan / Shawn Crahan / Sid Wilson / Slipknot / Slipknot feat Linkin ParkColaboração e revisão: