Dead Memories

Slipknot

Tom: G
Afinação: B F# B E G# C#

[Intro]

#1t1#Guitarra 1
#1t2#C#|-----------------------------------------------------------------|
G#|-----------------------------------------------------------------|
E |-----------------------------------------------------------------|
B |-----8-----8---------8-----8---8-----8-----8---------8-----8---8-|
F#|---5-----5-----5---5-----5---------5-----5-----5---5-----5-------|
B |-5-----8-----6---5-----5-----5---5-----8-----6---5-----5-----5---|#/1t2##/1t1#

#2t1#Guitarra 1
#2t2#C#|---------------------------------|
G#|---------------------------------|
E |---------------------------------|
B |-----8-----8---------8-----8---8-|
F#|---5-----5-----5---5-----5-------|
B |-5-----6-----8---5-----5-----5---|#/2t2##/2t1#

#3t1#Guitarra 2
#3t2#C#|---------------------------------|
G#|---------------------------------|
E |---------------------------------|
B |---------------------------------|
F#|-----------------------------15p\|
B |-----------------------------15p\|#/3t2##/3t1#

#4t1#Guitarras 1 e 2
#4t2#C#|----------------------------------|
G#|----------------------------------|
E |----------------------------------|
B |-5----\8----6---------------------|
F#|-5----\8----6-----5-5-5-5-5-5-5-5-|
B |-5----\8----6-----5-5-5-5-5-5-5-5-|#/4t2##/4t1#
 
#5t1#Guitarra 3
#5t2#C#|------------------------------------------|
G#|------------------------------------------|
E |-7----10---8---7h/14--14p\12--12p\7--7p\5-|
B |-x-----x---x---x---x---x-------x--x--x--x-|
F#|-5-----8---6---5h/12--12p\10--10p\5--5p\3-|
B |------------------------------------------|#/5t2##/5t1#

#6t1#Guitarras 1 e 2
#6t2#C#|-----------------------------------------------------------------|
G#|-----------------------------------------------------------------|
E |-----------------------------------------------------------------|
B |-----8-----8---------8-----8---8-----8-----8---------8-----8---8-|
F#|---5-----5-----5---5-----5---------5-----5-----5---5-----5-------|
B |-5-----8-----6---5-----5-----5---5-----8-----6---5-----5-----5---|#/6t2##/6t1#

#7t1#Guitar 3
#7t2#C#|-----------------------------------|
G#|-----------------------------------|
E |-7---------------------------------|
B |-x---------------------------------|
F#|-5---------------------------------|
B |-----------------------------------|#/7t2##/7t1#

#8t1#Guitarras 1 e 2
#8t2#C#|-------------------------------------------------|
G#|-------------------------------------------------|
E |-------------------------------------------------|
B |-----8-----8---------8-----8---8-----8-----8-----|
F#|---5-----5-----5---5-----5---------5-----5-----5-|
B |-5-----6-----8---5-----5-----5---5-----8-----6---|#/8t2##/8t1#

#9t1#Guitarras 1 e 2
#9t2#C#|---------------------------------|
G#|---------------------------------|
E |---------------------------------|
B |---------------------------------|
F#|-5-5-5-5-5-5-5-5-5-5-5-5-5-5-5-5-|
B |-5-5-5-5-5-5-5-5-5-5-5-5-5-5-5-5-|#/9t2##/9t1#

[Primeira Parte]

#10t1#Guitarras 1 e 2
#10t2#C#|-----------------------------------------------------------------------|
G#|-----------------------------------------------------------------------|
E |-----------------------------------------------------------------------|
B |-----8-----8---------8------8----8------8-----8---------8------8----8--|
F#|---5-----5-----5---5------5-----------5-----5-----5---5------5---------|
B |-5-----8-----6---5------5------5----5-----8-----6---5------5------5----|#/10t2##/10t1#

#11t1#Guitarras 1 e 2
#11t2#C#|-----------------------------------------------------------------------|
G#|-----------------------------------------------------------------------|
E |-----------------------------------------------------------------------|
B |-----8-----8---8-----8------8----8------8-----8---------8------8----8--|
F#|---5-----5---------5------5-----------5-----5-----5---5------5---------|
B |-5-----6-----8---5------5------5----5-----8-----6---5------5------8----|#/11t2##/11t1#

#12t1#Guitarras 1 e 2
#12t2#C#|-----------------------------------------------------------------------|
G#|-----------------------------------------------------------------------|
E |-----------------------------------------------------------------------|
B |---------------------8------8----8----------------------8------8----8--|
F#|-5-5-5-5-5-5-5-5-5-5----5-5----5----5-5-5-5-5-5-5-5-5-5----5-5----5----|
B |-5-5-5-8-8-8-6-6-5-5----5-5----5----5-5-5-8-8-8-6-6-5-5----5-5----5----|#/12t2##/12t1#

#13t1#Guitarras 1 e 2
#13t2#C#|-----------------------------------------------------------------------|
G#|-----------------------------------------------------------------------|
E |-----------------------------------------------------------------------|
B |---------------------8------8----8----------------------8------8----8--|
F#|-5-5-5-5-5-5-5-5-5-5----5-5----5----5-5-5-5-5-5-5-5-5-5----5-5----5----|
B |-5-5-5-6-6-6-8-8-5-5----5-5----5----5-5-5-8-8-8-6-6-5-5----5-5----5----|#/13t2##/13t1#

[Pré-Refrão]

#14t1#Guitarra 1
#14t2#C#|--------------------------------------------------------------------------|
G#|--------------------------------------------------------------------------|
E |--------------------------------------------------------------------------|
B |--------------0-------6-6-6-6-6-6-6---------------0-------6-6-6-----------| x2
F#|--------------0-0-0-0-6-6-6-6-6-6-6---------------0-0-0-0-6-6-6--/6-3-----|
B |-5-8-7--3-----0-0-0-0-6-6-6-6-6-6-6--5-8-7--3-----0-0-0-0-6-6-6-------4-0-|#/14t2##/14t1#

#15t1#Guitarra 2
#15t2#C#|------------------------------------------------------------------------------|
G#|------------------------------------------------------------------------------|
E |------------------------------------------------------------------------------|
B |----------------0-------6-6-6-6-6-6-6-----------------0-------6-6-6-----------| x2
F#|----------------0-0-0-0-6-6-6-6-6-6-6-----------------0-0-0-0-6-6-6--/6-3-----|
B |-5-8--7---3-----0-0-0-0-6-6-6-6-6-6-6--5-8--7---3-----0-0-0-0-6-6-6-------4-0-|#/15t2##/15t1#

[Refrão]

#16t1#Guitarra 1
#16t2#C#|-----------------------------------------------------------------|
G#|-----------------------------------------------------------------|
E |-----------------------3-3-3-3-3-----------------5-5-5-5-5-5-5-5-|
B |-5-5-5-5-5-5-5-5-1-1-1-3-3-3-3-3-0-0-0-0-0-0-0-0-5-5-5-5-5-5-5-5-|
F#|-5-5-5-5-5-5-5-5-1-1-1-1-1-1-1-1-0-0-0-0-0-0-0-0-3-3-3-3-3-3-3-3-|
B |-5-5-5-5-5-5-5-5-1-1-1-----------0-0-0-0-0-0-0-0-----------------|#/16t2##/16t1#

#17t1#Guitarra 2
#17t2#C#|-------------------------------------------------------------------------------------------------|
G#|-------------------------------------------------------------------------------------------------|
E |-15-15-15\14-14-14/10-10/12-12-12/14-14-14/15-15-15-15-15\14-14-14\10-10/12-12-12/14-14-14/15-15-|
B |--x--x--x--x--x--x--x--x--x--x--x--x--x--x--x--x--x--x--x--x--x--x--x--x--x--x--x--x--x--x--x--x-|
F#|-13-13-13\12-12-12/-8--8/10-10-10/12-12-12/13-13-13-13-13\12-12-12\-8--8/10-10-10/12-12-12/13-13-|
B |-------------------------------------------------------------------------------------------------|#/17t2##/17t1#

#18t1#Guitarra 1
#18t2#C#|----------------------------------------------------|
G#|----------------------------------------------------|
E |-----------------------3-3-3-3-3--------------------|
B |-5-5-5-5-5-5-5-5-1-1-1-3-3-3-3-3-3----2----1----0---|
F#|-5-5-5-5-5-5-5-5-1-1-1-1-1-1-1-1-3----2----1----0---|
B |-5-5-5-5-5-5-5-5-1-1-1-----------3----2----1----0---|#/18t2##/18t1#

#19t1#Guitarra 2
#19t2#C#|-----------------------------------------------------------------------------------|
G#|-----------------------------------------------------------------------------------|
E |-15-15-15\14-14-14\10-10-10/12-12-12/14-14-14/15-15-15---14---15---15---14---------|
B |--x--x--x--x--x--x--x--x--x--x--x--x--x--x--x--x--x--x----x----x----x----x---14-14-|
F#|-13-13-13\12-12-12\-8--8--8/10-10-10/12-12-12/13-13-13---12---13---13---12----x--x-|
B |-----------------------------------------------------------------------------12-12-|#/19t2##/19t1#

[Interlúdio]

#20t1#Guitarras 1 e 2
#20t2#C#|-------------------------------------------------|
G#|-------------------------------------------------|
E |-------------------------------------------------|
B |-----8-----8---------8-----8---8-----8-----8-----|
F#|---5-----5-----5---5-----5---------5-----5-----5-|
B |-5-----8-----6---5-----5-----5---5-----8-----6---|#/20t2##/20t1#

#21t1#Guitarra 1
#21t2#C#|-----------------------------------|
G#|-----------------------------------|
E |-----------------------------------|
B |-----------------------------------|
F#|-5-5-5-5-5-5-5-5-5-5-5-5-5-5-------|
B |-5-5-5-5-5-5-5-5-5-5-5-5-5-5--12p\-|#/21t2##/21t1#

#22t1#Guitarra 2
#22t2#C#|---------------------------------|
G#|---------------------------------|
E |---------------------------------|
B |---------------------------------|
F#|-5-5-5-5-5-5-5-5-5-5-5-5-5-5-5-5-|
B |-5-5-5-5-5-5-5-5-5-5-5-5-5-5-5-5-|#/22t2##/22t1#

[Segunda Parte]

#23t1#Guitarra 1
#23t2#C#|-----------------------------------------------------------------|
G#|-----------------------------------------------------------------|
E |-----------------------------------------------------------------|
B |-----------------------------------------------------------------|
F#|-5-5-5-5-5-5-8-8-8-8-8-8-6-6-6-6-5-5-5-5-8-8-5-5-5-5-8-8-5-5-8-8-|
B |-----------------------------------------------------------------|#/23t2##/23t1#

#24t1#Guitarra 2
#24t2#C#|-----------------------------------------------------------------|
G#|-----------------------------------------------------------------|
E |-----------------------------------------------------------------|
B |-----------------------------------------------------------------|
F#|-----------------------------------------------------------------|
B |-5-5-5-5-5-5-8-8-8-8-8-8-6-6-6-6-5-5-5-5-8-8-5-5-5-5-8-8-5-5-8-8-|#/24t2##/24t1#

#25t1#Guitarra 1
#25t2#C#|-------------------------------------------------------------------------------------------------|
G#|-------------------------------------------------------------------------------------------------|
E |-------------------------------------------------------------------------------------------------|
B |-------------------------------------------------------------------------------------------------|
F#|-5-5-5-5-5-5-8-8-8-8-8-8-6-6-6-6-5-5-5-5-8-8-5-5-5-5-8-8-5-5-8-8-5-5-5-5-5-5-6-6-6-6-6-6-8-8-8-8-|
B |-------------------------------------------------------------------------------------------------|#/25t2##/25t1#

#26t1#Guitarra 2
#26t2#C#|-------------------------------------------------------------------------------------------------|
G#|-------------------------------------------------------------------------------------------------|
E |-------------------------------------------------------------------------------------------------|
B |-------------------------------------------------------------------------------------------------|
F#|-------------------------------------------------------------------------------------------------|
B |-5-5-5-5-5-5-8-8-8-8-8-8-6-6-6-6-5-5-5-5-8-8-5-5-5-5-8-8-5-5-8-8-5-5-5-5-5-5-6-6-6-6-6-6-8-8-8-8-|#/26t2##/26t1#
 
#27t1#Guitarra 1
#27t2#C#|-------------------------------------------------------------------------------------------------|
G#|-------------------------------------------------------------------------------------------------|
E |-------------------------------------------------------------------------------------------------|
B |-------------------------------------------------------------------------------------------------|
F#|-5-5-5-5-8-8-5-5-5-5-8-8-5-5-8-8-5-5-5-5-5-5-8-8-8-8-8-8-6-6-6-6-5-5-5-5-8-8-5-5-5-5-8-8-5-5-8-8-|
B |-------------------------------------------------------------------------------------------------|#/27t2##/27t1#
  
#28t1#Guitarra 2
#28t2#C#|-------------------------------------------------------------------------------------------------|
G#|-------------------------------------------------------------------------------------------------|
E |-------------------------------------------------------------------------------------------------|
B |-------------------------------------------------------------------------------------------------|
F#|-------------------------------------------------------------------------------------------------|
B |-5-5-5-5-8-8-5-5-5-5-8-8-5-5-8-8-5-5-5-5-5-5-8-8-8-8-8-8-6-6-6-6-5-5-5-5-8-8-5-5-5-5-8-8-5-5-8-8-|#/28t2##/28t1#
    
[Pré-Refrão]

#29t1#Guitarra 1
#29t2#C#|--------------------------------------------------------------------------|
G#|--------------------------------------------------------------------------|
E |--------------------------------------------------------------------------|
B |--------------0-------6-6-6-6-6-6-6---------------0-------6-6-6-----------| x2
F#|--------------0-0-0-0-6-6-6-6-6-6-6---------------0-0-0-0-6-6-6--/6-3-----|
B |-5-8-7--3-----0-0-0-0-6-6-6-6-6-6-6--5-8-7--3-----0-0-0-0-6-6-6-------4-0-|#/29t2##/29t1#

#30t1#Guitarra 2
#30t2#C#|------------------------------------------------------------------------------|
G#|------------------------------------------------------------------------------|
E |------------------------------------------------------------------------------|
B |----------------0-------6-6-6-6-6-6-6-----------------0-------6-6-6-----------| x2
F#|----------------0-0-0-0-6-6-6-6-6-6-6-----------------0-0-0-0-6-6-6--/6-3-----|
B |-5-8--7---3-----0-0-0-0-6-6-6-6-6-6-6--5-8--7---3-----0-0-0-0-6-6-6-------4-0-|#/30t2##/30t1#

[Refrão]

#31t1#Guitarra 1
#31t2#C#|-----------------------------------------------------------------|
G#|-----------------------------------------------------------------|
E |-----------------------3-3-3-3-3-----------------5-5-5-5-5-5-5-5-|
B |-5-5-5-5-5-5-5-5-1-1-1-3-3-3-3-3-0-0-0-0-0-0-0-0-5-5-5-5-5-5-5-5-|
F#|-5-5-5-5-5-5-5-5-1-1-1-1-1-1-1-1-0-0-0-0-0-0-0-0-3-3-3-3-3-3-3-3-|
B |-5-5-5-5-5-5-5-5-1-1-1-----------0-0-0-0-0-0-0-0-----------------|#/31t2##/31t1#

#32t1#Guitarra 2
#32t2#C#|-------------------------------------------------------------------------------------------------|
G#|-------------------------------------------------------------------------------------------------|
E |-15-15-15\14-14-14/10-10/12-12-12/14-14-14/15-15-15-15-15\14-14-14\10-10/12-12-12/14-14-14/15-15-|
B |--x--x--x--x--x--x--x--x--x--x--x--x--x--x--x--x--x--x--x--x--x--x--x--x--x--x--x--x--x--x--x--x-|
F#|-13-13-13\12-12-12/-8--8/10-10-10/12-12-12/13-13-13-13-13\12-12-12\-8--8/10-10-10/12-12-12/13-13-|
B |-------------------------------------------------------------------------------------------------|#/32t2##/32t1#

#33t1#Guitarra 1
#33t2#C#|----------------------------------------------------|
G#|----------------------------------------------------|
E |-----------------------3-3-3-3-3--------------------|
B |-5-5-5-5-5-5-5-5-1-1-1-3-3-3-3-3-3----2----1----0---|
F#|-5-5-5-5-5-5-5-5-1-1-1-1-1-1-1-1-3----2----1----0---|
B |-5-5-5-5-5-5-5-5-1-1-1-----------3----2----1----0---|#/33t2##/33t1#

#34t1#Guitarra 2
#34t2#C#|-----------------------------------------------------------------------------------|
G#|-----------------------------------------------------------------------------------|
E |-15-15-15\14-14-14\10-10-10/12-12-12/14-14-14/15-15-15---14---15---15---14---------|
B |--x--x--x--x--x--x--x--x--x--x--x--x--x--x--x--x--x--x----x----x----x----x---14-14-|
F#|-13-13-13\12-12-12\-8--8--8/10-10-10/12-12-12/13-13-13---12---13---13---12----x--x-|
B |-----------------------------------------------------------------------------12-12-|#/34t2##/34t1#

#35t1#Guitarra 1
#35t2#C#|-----------------------------------------------------------------|
G#|-----------------------------------------------------------------|
E |-----------------------3-3-3-3-3-----------------5-5-5-5-5-5-5-5-|
B |-5-5-5-5-5-5-5-5-1-1-1-3-3-3-3-3-0-0-0-0-0-0-0-0-5-5-5-5-5-5-5-5-|
F#|-5-5-5-5-5-5-5-5-1-1-1-1-1-1-1-1-0-0-0-0-0-0-0-0-3-3-3-3-3-3-3-3-|
B |-5-5-5-5-5-5-5-5-1-1-1-----------0-0-0-0-0-0-0-0-----------------|#/35t2##/35t1#

#36t1#Guitarra 2
#36t2#C#|-------------------------------------------------------------------------------------------------|
G#|-------------------------------------------------------------------------------------------------|
E |-15-15-15\14-14-14/10-10/12-12-12/14-14-14/15-15-15-15-15\14-14-14\10-10/12-12-12/14-14-14/15-15-|
B |--x--x--x--x--x--x--x--x--x--x--x--x--x--x--x--x--x--x--x--x--x--x--x--x--x--x--x--x--x--x--x--x-|
F#|-13-13-13\12-12-12/-8--8/10-10-10/12-12-12/13-13-13-13-13\12-12-12\-8--8/10-10-10/12-12-12/13-13-|
B |-------------------------------------------------------------------------------------------------|#/36t2##/36t1#

#37t1#Guitarra 1
#37t2#C#|----------------------------------------------------|
G#|----------------------------------------------------|
E |-----------------------3-3-3-3-3--------------------|
B |-5-5-5-5-5-5-5-5-1-1-1-3-3-3-3-3-3----2----1----0---|
F#|-5-5-5-5-5-5-5-5-1-1-1-1-1-1-1-1-3----2----1----0---|
B |-5-5-5-5-5-5-5-5-1-1-1-----------3----2----1----0---|#/37t2##/37t1#

#38t1#Guitarra 2
#38t2#C#|-----------------------------------------------------------------------------------|
G#|-----------------------------------------------------------------------------------|
E |-15-15-15\14-14-14\10-10-10/12-12-12/14-14-14/15-15-15---14---15---15---14---------|
B |--x--x--x--x--x--x--x--x--x--x--x--x--x--x--x--x--x--x----x----x----x----x---14-14-|
F#|-13-13-13\12-12-12\-8--8--8/10-10-10/12-12-12/13-13-13---12---13---13---12----x--x-|
B |-----------------------------------------------------------------------------12-12-|#/38t2##/38t1#

[Interlúdio]

#39t1#Guitarras 1 e 2
#39t2#C#|-------------------------------------------------|
G#|-------------------------------------------------|
E |-------------------------------------------------|
B |-----8-----8---------8-----8---8-----8-----8-----|
F#|---5-----5-----5---5-----5---------5-----5-------|
B |-5-----8-----6---5-----5-----5---5-----8-----6-0-|#/39t2##/39t1#

#40t1#Guitarras 1 e 2
#40t2#C#|-----------------------------------------------------------------|
G#|-----------------------------------------------------------------|
E |-----------------------------------------------------------------|
B |-----------------------------------------------------------------|
F#|---5-5---5-5---5---5-5---5-5---5---5-5---5-5---5---5-5---5-5---5-|
B |-6-----6-----6---6-----6-----6---6-----6-----6---6-----6-----6---|#/40t2##/40t1#

[Solo] 

Guitarra 1
             1__  .5     1________    1____                       
#41t1##41t2#C#|-----10--------------------------13b---(13)p11-13-----11h13-11-------|
G#|--------13b--13pb--13pb--------x-------------------------------------|
E |-/13---------------------------x-------------------------------------|
B |---------------------------------------------------------------------|
F#|---------------------------------------------------------------------|
B |---------------------------------------------------------------------|#/41t2##/41t1#

#42t1#Guitarra 2
#42t2#C#|----------------------------------------------------------------------------|
G#|----------------------------------------------------------------------------|
E |----------------------------------------------------------------------------|
B |----------------0-------6-6-6-6-6-6-6-----------------0-------6-6-6-6-6-6-6-|
F#|----------------0-0-0-0-6-6-6-6-6-6-6-----------------0-0-0-0-6-6-6-6-6-6-6-|
B |-5-8--7---3-----0-0-0-0-6-6-6-6-6-6-6--5-8--7---3-----0-0-0-0-6-6-6-6-6-6-6-|#/42t2##/42t1#

#43t1#Guitarra 1
#43t2#C#|-/10h11h13p11p10h11p10------------------------------------------------|
G#|----------------------13p11p10h11p10p\8-------------------------------|
E |---------------------------------------10p8h10p8p7--8h10p8h10p8p7-7-7-|
B |--------------------------------------------------10-------------8----|
F#|----------------------------------------------------------------------|
B |----------------------------------------------------------------------|#/43t2##/43t1#

#44t1#Guitarra 1
#44t2#C#|----------------------------|
G#|----------------------------|
E |-7h8-7h8p7-8p7-8p7-7-/12----|
B |----------------------------|
F#|----------------------------|
B |----------------------------|#/44t2##/44t1#

#45t1#Guitarra 2
#45t2#C#|----------------------------------------------------------------------------|
G#|----------------------------------------------------------------------------|
E |----------------------------------------------------------------------------|
B |----------------0-------6-6-6-6-6-6-6-----------------0-------6-6-6-6-6-6-6-|
F#|----------------0-0-0-0-6-6-6-6-6-6-6-----------------0-0-0-0-6-6-6-6-6-6-6-|
B |-5-8--7---3-----0-0-0-0-6-6-6-6-6-6-6--5-8--7---3-----0-0-0-0-6-6-6-6-6-6-6-|#/45t2##/45t1#

#46t1#Guitarra 1
#46t2#C#|-----------------------------------------------------------------------------------------------|
G#|-----------------------------------------------------------------------------------------------|
E |------7--5/10--\5/7--\5/8--5h/7-\5-------/17-15-15\14---\12-12---------------------------------|
B |------x--x--x---x-x---x-x--x--x--x-----------------------------12-12\10-10/15-15\12-12\10/12---|
F#|-13p\-5--3/-8--\3/5--\3/6--3h/5-\3---5p\-------------------------------------------------------|
B |-----------------------------------------------------------------------------------------------|#/46t2##/46t1#

#47t1#Guitarra 2
#47t2#C#|-----------------------------------------------------------------------------|
G#|-----------------------------------------------------------------------------|
E |-----------------------------------------------------------------------------|
B |----------------0-------6-6-6-6-6-6-6-----------------0-------6-6-6----------|
F#|----------------0-0-0-0-6-6-6-6-6-6-6-----------------0-0-0-0-6-6-6--6-3-----|
B |-5-8--7---3-----0-0-0-0-6-6-6-6-6-6-6--5-8--7---3-----0-0-0-0-6-6-6------4-0-|#/47t2##/47t1#

[Interlúdio]

#48t1#Guitarra 3
#48t2#C#|-----------------------------------------------------------|
G#|-10--------10-----11-----10--------10--------11------------|
E |-----------------------------------------------------------|
B |------------8------8------10--------12---------------------|
F#|-10--------------------------------------------------------|
B |-----------------------------------------------------------|#/48t2##/48t1#

#49t1#Guitar 4:
#49t2#C#|-6-----5------------------5-------6------8------5---------------7----8----|
G#|---------------6\------------------------------------------8--------------|
E |------------------------------------------------------8----7--------------|
B |-------0---------------------------------0-----------------0--------------|
F#|-0------------------------------------------------------------------------|
B |-------------------8------------------------------------------------------|#/49t2##/49t1#

#50t1#Guitarra 3
#50t2#C#|---------------------------|----------------------------------|
G#|-10--------10------11------|10--------10-------11-------------|
E |---------------------------|----------------------------------|
B |------------8------8-------|10--------12----------------------|
F#|-10------------------------|----------------------------------|
B |---------------------------|----------------------------------|#/50t2##/50t1#

#51t1#Guitar 4:
#51t2#C#|-6------5-----------------5-------6------|8------5----------------7----8----|
G#|----------------6\-----------------------|-------------------8--------------|
E |-----------------------------------------|-------------8-----7--------------|
B |--------0--------------------------------|0------------------0--------------|
F#|-0---------------------------------------|----------------------------------|
B |-------------------8---------------------|----------------------------------|#/51t2##/51t1#

#52t1#[Piano]
#52t2#C#|---------------------------------------------------------------------|
G#|-15-----16----15-----15----------16----15------15------16-----15-----|
E |---------------------------------------------------------------------|
B |---------------------------------------------------------------------|
F#|---------------------------------------------------------------------|
B |---------------------------------------------------------------------|#/52t2##/52t1#

#53t1#Guitarra 1
#53t2#C#|-------------------------------|
G#|-------------------------------|
E |-------------------------------|
B |------3-----2-----1-----0------|
F#|-12p\-3-----2-----1-----0------|
B |-12p\-3-----2-----1-----0------|#/53t2##/53t1#

#54t1#Guitarra 2
#54t2#C#|--------------------------------------------|
G#|--------------------------------------------|
E |------15----14----15--15------14------------|
B |-------x-----x-----x---x--------------14-14-|
F#|-12p\-13----12----13--13------12-------x--x-|
B |-12p\---------------------------------12-12-|#/54t2##/54t1#

[Refrão]

#55t1#Guitarra 1
#55t2#C#|-----------------------------------------------------------------|
G#|-----------------------------------------------------------------|
E |-----------------------3-3-3-3-3-----------------5-5-5-5-5-5-5-5-|
B |-5-5-5-5-5-5-5-5-1-1-1-3-3-3-3-3-0-0-0-0-0-0-0-0-5-5-5-5-5-5-5-5-|
F#|-5-5-5-5-5-5-5-5-1-1-1-1-1-1-1-1-0-0-0-0-0-0-0-0-3-3-3-3-3-3-3-3-|
B |-5-5-5-5-5-5-5-5-1-1-1-----------0-0-0-0-0-0-0-0-----------------|#/55t2##/55t1#

#56t1#Guitarra 2
#56t2#C#|-------------------------------------------------------------------------------------------------|
G#|-------------------------------------------------------------------------------------------------|
E |-15-15-15\14-14-14/10-10/12-12-12/14-14-14/15-15-15-15-15\14-14-14\10-10/12-12-12/14-14-14/15-15-|
B |--x--x--x--x--x--x--x--x--x--x--x--x--x--x--x--x--x--x--x--x--x--x--x--x--x--x--x--x--x--x--x--x-|
F#|-13-13-13\12-12-12/-8--8/10-10-10/12-12-12/13-13-13-13-13\12-12-12\-8--8/10-10-10/12-12-12/13-13-|
B |-------------------------------------------------------------------------------------------------|#/56t2##/56t1#

#57t1#Guitarra 1
#57t2#C#|----------------------------------------------------|
G#|----------------------------------------------------|
E |-----------------------3-3-3-3-3--------------------|
B |-5-5-5-5-5-5-5-5-1-1-1-3-3-3-3-3-3----2----1----0---|
F#|-5-5-5-5-5-5-5-5-1-1-1-1-1-1-1-1-3----2----1----0---|
B |-5-5-5-5-5-5-5-5-1-1-1-----------3----2----1----0---|#/57t2##/57t1#

#58t1#Guitarra 2
#58t2#C#|-----------------------------------------------------------------------------------|
G#|-----------------------------------------------------------------------------------|
E |-15-15-15\14-14-14\10-10-10/12-12-12/14-14-14/15-15-15---14---15---15---14---------|
B |--x--x--x--x--x--x--x--x--x--x--x--x--x--x--x--x--x--x----x----x----x----x---14-14-|
F#|-13-13-13\12-12-12\-8--8--8/10-10-10/12-12-12/13-13-13---12---13---13---12----x--x-|
B |-----------------------------------------------------------------------------12-12-|#/58t2##/58t1#

#59t1#Guitarra 1
#59t2#C#|-----------------------------------------------------------------|
G#|-----------------------------------------------------------------|
E |-----------------------3-3-3-3-3-----------------5-5-5-5-5-5-5-5-|
B |-5-5-5-5-5-5-5-5-1-1-1-3-3-3-3-3-0-0-0-0-0-0-0-0-5-5-5-5-5-5-5-5-|
F#|-5-5-5-5-5-5-5-5-1-1-1-1-1-1-1-1-0-0-0-0-0-0-0-0-3-3-3-3-3-3-3-3-|
B |-5-5-5-5-5-5-5-5-1-1-1-----------0-0-0-0-0-0-0-0-----------------|#/59t2##/59t1#

#60t1#Guitarra 2
#60t2#C#|-------------------------------------------------------------------------------------------------|
G#|-------------------------------------------------------------------------------------------------|
E |-15-15-15\14-14-14/10-10/12-12-12/14-14-14/15-15-15-15-15\14-14-14\10-10/12-12-12/14-14-14/15-15-|
B |--x--x--x--x--x--x--x--x--x--x--x--x--x--x--x--x--x--x--x--x--x--x--x--x--x--x--x--x--x--x--x--x-|
F#|-13-13-13\12-12-12/-8--8/10-10-10/12-12-12/13-13-13-13-13\12-12-12\-8--8/10-10-10/12-12-12/13-13-|
B |-------------------------------------------------------------------------------------------------|#/60t2##/60t1#

#61t1#Guitarra 1
#61t2#C#|----------------------------------------------------|
G#|----------------------------------------------------|
E |-----------------------3-3-3-3-3--------------------|
B |-5-5-5-5-5-5-5-5-1-1-1-3-3-3-3-3-3----2----1----0---|
F#|-5-5-5-5-5-5-5-5-1-1-1-1-1-1-1-1-3----2----1----0---|
B |-5-5-5-5-5-5-5-5-1-1-1-----------3----2----1----0---|#/61t2##/61t1#

#62t1#Guitarra 2
#62t2#C#|-----------------------------------------------------------------------------------|
G#|-----------------------------------------------------------------------------------|
E |-15-15-15\14-14-14\10-10-10/12-12-12/14-14-14/15-15-15---14---15---15---14---------|
B |--x--x--x--x--x--x--x--x--x--x--x--x--x--x--x--x--x--x----x----x----x----x---14-14-|
F#|-13-13-13\12-12-12\-8--8--8/10-10-10/12-12-12/13-13-13---12---13---13---12----x--x-|
B |-----------------------------------------------------------------------------12-12-|#/62t2##/62t1#

[Final]

[Solo]

Guitarra 3
                                                          1___                        1___
#63t1##63t2#C#|-------------------------------------------------------------------------------------------|
G#|-15h16p15p13-15------13-15-15h16p15p13-15------13-15-16b--(16)-16p15-15p13\11-13-13b--(13)-|
E |-------------------------------------------------------------------------------------------|
B |-------------------------------------------------------------------------------------------|
F#|-------------------------------------------------------------------------------------------|
B |-------------------------------------------------------------------------------------------|#/63t2##/63t1#

#64t1#Guitarra 1
#64t2#C#|-----------------------------------------------------------------|
G#|-----------------------------------------------------------------|
E |-----------------------3-3-3-3-3-----------------5-5-5-5-5-5-5-5-|
B |-5-5-5-5-5-5-5-5-1-1-1-3-3-3-3-3-0-0-0-0-0-0-0-0-5-5-5-5-5-5-5-5-|
F#|-5-5-5-5-5-5-5-5-1-1-1-1-1-1-1-1-0-0-0-0-0-0-0-0-3-3-3-3-3-3-3-3-|
B |-5-5-5-5-5-5-5-5-1-1-1-----------0-0-0-0-0-0-0-0-----------------|#/64t2##/64t1#

#65t1#Guitarra 2
#65t2#C#|-------------------------------------------------------------------------------------------------|
G#|-------------------------------------------------------------------------------------------------|
E |-15-15-15\14-14-14/10-10/12-12-12/14-14-14/15-15-15-15-15\14-14-14\10-10/12-12-12/14-14-14/15-15-|
B |--x--x--x--x--x--x--x--x--x--x--x--x--x--x--x--x--x--x--x--x--x--x--x--x--x--x--x--x--x--x--x--x-|
F#|-13-13-13\12-12-12/-8--8/10-10-10/12-12-12/13-13-13-13-13\12-12-12\-8--8/10-10-10/12-12-12/13-13-|
B |-------------------------------------------------------------------------------------------------|#/65t2##/65t1#

#66t1#Guitarra 3
#66t2#C#|-------------------------------------------------------------------------|
G#|-11h13-11h13p11p\10-11h13-10h/11-10-------13p11p10----11h13-11-10----11\-|
E |------------------------------------12-------------12--------------------|
B |-------------------------------------------------------------------------|
F#|-------------------------------------------------------------------------|
B |-------------------------------------------------------------------------|#/66t2##/66t1#

#67t1#Guitarra 1
#67t2#C#|---------------------------------|
G#|---------------------------------|
E |-----------------------3-3-3-3-3-|
B |-5-5-5-5-5-5-5-5-1-1-1-3-3-3-3-3-|
F#|-5-5-5-5-5-5-5-5-1-1-1-1-1-1-1-1-|
B |-5-5-5-5-5-5-5-5-1-1-1-----------|#/67t2##/67t1#

#68t1#Guitarra 2
#68t2#B |----------------------------------------------------|
F#|----------------------------------------------------|
D|-15-15-15\14-14-14\10-10-10/12-12-12/14-14-14/15-15-|
A|--x--x--x--x--x--x--x--x--x--x--x--x--x--x--x--x--x-|
E |-13-13-13\12-12-12\-8--8--8/10-10-10/12-12-12/13-13-|
B |----------------------------------------------------|#/68t2##/68t1#

#69t1#Guitarra 3
#69t2#C#|--------------------------------------------------------------------------|
G#|--------------------------------------------------------------------------|
E |-10-----9-----------------------------------------------------------------|
B |-----------------13------12----------------------(12)-----------x12-------|
F#|--------------------------------------------------------------[5h8p5]-8p\-|
B |--------------------------------------------------------------------------|#/69t2##/69t1#

#70t1#Guitarra 1
#70t2#C#|---------------------------------------------------------------|
G#|---------------------------------------------------------------|
E |---------------------------------------------------------------|
B |-3-----2-----1-----0-------------------------(0)---------------|
F#|-3-----2-----1-----0-------------------------(0)---------------|
B |-3-----2-----1-----0-------------------------(0)---------------|#/70t2##/70t1#

#71t1#Guitarra 2
#71t2#C#|----------------------------------------------------------------|
G#|----------------------------------------------------------------|
E |-15-----14-----15-----15-----14-------------(14)----------------|
B |--x------x------x------x------x---------------------------------|
F#|-13-----12-----13-----13-----12-------------(12)----------------|
B |----------------------------------------------------------------|#/71t2##/71t1#
Composição: SlipknotColaboração e revisão: Lucas KappaunAntonio ConstantinoVinicius BragaWill Se mais 2