Despise

Slipknot

Tom: G
Tabbed By: Sqweeky
EMail: B*

TUNING: B F# B E G# C# 
10' and 11's marked by * 
   

#1t1#Intro 
#1t2#C# ------------------------------- 
G# ------------------------------- 
E    ------------------------------- 
B   ---7/6--6--7/6------------- 
F#  ---6/5--5--6/5------------- 
B    ------------------------------- #/1t2##/1t1#

#2t1#   Chorus 
#2t2#C# ------------------------------- 
G# ------------------------------- 
E   ------------------------------- 
B   ---3-3-1-0-0-0-3-1------- 
F#  ---3-3-1-0-0-0-3-1------- 
B   ---3-3-1-0-0-0-3-1-------- #/2t2##/2t1#

#3t1#   Verse Guit. 1 
#3t2#C# ---------------------------------- 
G# --15-15-15-15-15-15-15-- 
E    ---------------------------------- 
B    ---------------------------------- 
F#  ---------------------------------- 
B    ---------------------------------- #/3t2##/3t1#
#4t1#  Verse Guit. 2 
#4t2#C# ------------------------------- 
G# ------------------------------- 
E    ------------------------------- 
B   ---3-3-1-0-0-0-3-1------- 
F#  ---3-3-1-0-0-0-3-1------- 
B   ---3-3-1-0-0-0-3-1-------- 
P.M. ...................... #/4t2##/4t1#
  

#5t1#Bridge 1 
#5t2#C# ------------------------------- 
G# ------------------------------- 
E  -----11*------------------------- 
B    ---10*--------0-8-8-0-4-4-4-------------- 
F#  ---------------0-8-8-0-4-4-4---------- 
B    --------------0-8-8-0-4-4-4------------- #/5t2##/5t1#

#6t1#   Bridge Part 2 
#6t2#C# ------------------------------- 
G# ------------------------------- 
E    ------------------------------- 
B  -----4-4-4-4-4-4-0-0-0-7^-7-7-7-------------- 
F#  ----4-4-4-4-4-4-0-0-0-7^-7-7-7--------------- 
B    ---4-4-4-4-4-4-0-0-0-7^-7-7-7----------------------------- #/6t2##/6t1#

#7t1#      Bridge part 3 
#7t2#C# ------------------------------- 
G# ------------------------------- 
E    ------------------------------- 
B  -----3-1-0-3-1------------- 
F#  ----3-1-0-3-1-------------- 
B    ---3-1-0-3-1---------------#/7t2##/7t1#
Composição: indisponívelColaboração e revisão: