Disasterpieces

Slipknot

A
123
X02220
B
234
X24442
C
123
X32010
D
123
XX0232
E
123
022100
F
234
133211
G
123
320003
Tom: G
Tuning: B F# B E G# C#

   = Harmonic
   .  = Palm Mute
   p  = Pull-Off
   \  = Slide Down
   '  = Tremolo Pick
   ~  = Let Ring
   x  = Mute
   b  = Bend
   r  = Release Bend
  = Artificial Harmonic


GUITAR ONE:

#1t1#Riff A (16x) (0:00):
#1t2#|---------------------------------------------|
|--------------------------4------------------|
|---------------------------------------------|
|---------------------------------------------|
|---------------------------------------------|
|---------------|#/1t2##/1t1#


#2t1#Riff B (4x) (0:36):
#2t2#|-----------------------------|-----------------------------|
|-----------------------------|-----------------------------|
|-----------------------------|-----------------------------|
|-----0-----1-----1p0-2p0-4\1-|-----0-----1-----1p0-2p0-3\1-|
|-----0-----1-----1p0-2p0-4\1-|-----0-----1-----1p0-2p0-3\1-|
|-0-0-0-0-0-1-0-0-1p0-2p0-4\1-|-0-0-0-0-0-1-0-0-1p0-2p0-3\1-|
  . .   . .   . .               . .   . .   . .#/2t2##/2t1#


#3t1#Riff C (2x) (0:54):
#3t2#|------------------------|------------------------|
|------------------------|------------------------|
|------------------------|------------------------|
|------------------------|------------------------|
|------------------------|------------------------|
|-0-1-0--1p0-0-2p0-0-4\1-|-0-1-0--1p0-0-2p0-0-3\1-|
  ' '                      ' '#/3t2##/3t1#


#4t1#Riff D (4x) (1:01) (first 4 times played, let 7th chord ring):
#4t2#|----------------------------|----------------------------|
|----------------------------|----------------------------|
|----------------------------|----------------------------|
|-0-0-0-1-1-1-0--1p0-2p0-4\1-|-0-0-0-1-1-1-0--1p0-2p0-3\1-|
|-0-0-0-1-1-1-0--1p0-2p0-4\1-|-0-0-0-1-1-1-0--1p0-2p0-3\1-|
|-0-0-0-1-1-1-0--1p0-2p0-4\1-|-0-0-0-1-1-1-0--1p0-2p0-3\1-|#/4t2##/4t1#


#5t1#Riff E (2x) (1:21):
#5t2#|--------|-------------------------|
|--------|-11--12-----------11--12-|
|--------|--x---x------------x---x-|
|-0-1-0~-|--8---9------------8---9-|
|-0-1-0~-|-------------------------|
|-0-1-0~-|---------0--1--0---------|
            '   '  '  '      '   '#/5t2##/5t1#


#6t1#Riff F (4x) (1:36):
#6t2#|-------------------------------|
|-x---x-x---x-x--x---x--x---x---|
|-9br-9-9br-9-9--9br-9-10br-9br-|
|-------------------------------|
|-------------------------------|
|-------------------------------|#/6t2##/6t1#


#7t1#Riff G (2x) (1:45):
#7t2#|----------------------------|----------------------------|
|----------------------------|----------------------------|
|----------------------------|----------------------------|
|-1-1-1-2-2-2-1--1p0-2p0-4\1-|-1-1-1-2-2-2-1--1p0-2p0-3\1-|
|-1-1-1-2-2-2-1--1p0-2p0-4\1-|-1-1-1-2-2-2-1--1p0-2p0-3\1-|
|-1-1-1-2-2-2-1--1p0-2p0-4\1-|-1-1-1-2-2-2-1--1p0-2p0-3\1-|#/7t2##/7t1#


#8t1#Riff H (2x) (1:53):
#8t2#|-------------------------|
|-x---x-x---x--x---x--x---|
|-9br-9-9br-9--9br-9-10br-|
|-------------------------|
|-------------------------|
|-------------------------|#/8t2##/8t1#


Play RIFF B (4x) (1:58)
Play RIFF E (2x) (2:15)


#9t1#Riff I (4x) (2:33):
#9t2#|----|
|----|
|----|
|-0~-|
|-0~-|
|-0~-|#/9t2##/9t1#


#10t1#Riff J (8x) (2:42) (PM):
#10t2#|--------------------|
|--------------------|
|--------------------|
|--------------------|
|----------------|
|------0-3-4-1-6-8-9-|
               ' '#/10t2##/10t1#


#11t1#Riff K (4x) (3:01):
#11t2#|--------------------|
|--------------------|
|--------------------|
|------0-3-4-1-6-8-9-|
|--0-3-4-1-6-8-9-|
|------0-3-4-1-6-8-9-|
               ' '#/11t2##/11t1#


Play RIFF K (4x) (3:11) (Without Tremolo Picking)
Play RIFF K (4x) (3:19) (Palm Muted with Tremolo Picking)
Play RIFF F (3x) (3:28), then again (12x) (3:37)


#12t1#Riff L (7x) (4:04):     End with (4:19):
#12t2#|-----------------------|------|
|-x---x---x--x---x--x---|--|
|-9br-9br-9--9br-9-10br-|--|
|-----------------------|------|
|-----------------------|------|
|-----------------------|------|
                            '#/12t2##/12t1#


Play RIFF K (11x) (4:21) (Palm Muted with Tremolo Picking)


#13t1#Riff M (2x) (4:44):
#13t2#|------------|
|------------|
|------------|
|------0-3-4-|
|--0-3-4-|
|------0-3-4-|
       . . .#/13t2##/13t1#


Play RIFF K (8x) (4:48) (Without Tremolo Picking; 8th time play Palm Muted)


#14t1##14t2#------------------------------------------------------------------------------#/14t2##/14t1#


GUITAR TWO:

Riff A (0:09):
 (1x)  (4x)
#15t1##15t2#|----|------------------------------|
|----|------------------------------|
|----|------------------------------|
|----|------------6br---------------|
|----|------------------------------|
|-1/-|-0-0-0--0-0------0-0-0--1-1-1-|
       . .    . .      . .    . . .#/15t2##/15t1#


#16t1#Riff B (4x) (0:18):
#16t2#|---------------------------------|---------------------------------|
|---------------------------------|---------------------------------|
|------------14br-----------------|------------14br-----------------|
|-------------x-------------------|-------------x-------------------|
|------------12br-----------------|------------12br-----------------|
|-0-0-0--0-0------0-0-1p0-2p0-4p3-|-0-0-0--0-0------0-0-1p0-2p0-4p2-|
  . .    . .      . .               . .    . .      . .#/16t2##/16t1#


#17t1#Riff C (4x) (0:36):
#17t2#|-----------------------------|-----------------------------|
|-----------------------------|-----------------------------|
|-----------------------------|-----------------------------|
|-----0-----1-----1p0-2p0-4\1-|-----0-----1-----1p0-2p0-3\1-|
|-----0-----1-----1p0-2p0-4\1-|-----0-----1-----1p0-2p0-3\1-|
|-0-0-0-0-0-1-0-0-1p0-2p0-4\1-|-0-0-0-0-0-1-0-0-1p0-2p0-3\1-|
  . .   . .   . .               . .   . .   . .#/17t2##/17t1#


#18t1#Riff D (1x) (0:54):
#18t2#|-------|
|-------|
|-------|
|-0-1-0-|
|-0-1-0-|
|-0-1-0-|
  ' '#/18t2##/18t1#


#19t1#Riff E (4x) (1:01) (First 4 times played, let 7th chord ring):
#19t2#|----------------------------|----------------------------|
|----------------------------|----------------------------|
|----------------------------|----------------------------|
|-0-0-0-1-1-1-0--1p0-2p0-4\1-|-0-0-0-1-1-1-0--1p0-2p0-3\1-|
|-0-0-0-1-1-1-0--1p0-2p0-4\1-|-0-0-0-1-1-1-0--1p0-2p0-3\1-|
|-0-0-0-1-1-1-0--1p0-2p0-4\1-|-0-0-0-1-1-1-0--1p0-2p0-3\1-|#/19t2##/19t1#


#20t1#Riff F (2x) (1:21):
#20t2#|--------|---------------------|
|--------|---------------------|
|--------|-3--8-----------3--8-|
|-0-1-0~-|-x--x-----------x--x-|
|-0-1-0~-|-1--6-----------1--6-|
|-0-1-0~-|-------0--1--0-------|
           '  '  '  '     '  '#/20t2##/20t1#


#21t1#Riff G (2x) (1:36):
#21t2#|--------------------------------|--------------------------------|
|--------------------------------|--------------------------------|
|--------------------------------|--------------------------------|
|--------------------------------|--------------------------------|
|--------------------------------|--------------------------------|
|-0-0-0-1-1-1-0--1p0-0-2p0-0-4\1-|-0-0-0-1-1-1-0--1p0-0-2p0-0-3\1-|#/21t2##/21t1#


#22t1#Riff H (2x) (1:45):
#22t2#|----------------------------|----------------------------|
|----------------------------|----------------------------|
|----------------------------|----------------------------|
|-1-1-1-2-2-2-1--1p0-2p0-4\1-|-1-1-1-2-2-2-1--1p0-2p0-3\1-|
|-1-1-1-2-2-2-1--1p0-2p0-4\1-|-1-1-1-2-2-2-1--1p0-2p0-3\1-|
|-1-1-1-2-2-2-1--1p0-2p0-4\1-|-1-1-1-2-2-2-1--1p0-2p0-3\1-|#/22t2##/22t1#


#23t1#Riff I (2x) (1:53):
#23t2#|---------------------|
|---------------------|
|---------------------|
|---------------------|
|---------------------|
|-0-0-0-1-1-1-0--0--0-|#/23t2##/23t1#


Play RIFF C (4x) (1:58)
Play RIFF F (2x) (2:15)


#24t1#Riff J (12x) (2:33):
#24t2#|----|
|----|
|----|
|-0~-|
|-0~-|
|-0~-|#/24t2##/24t1#


#25t1#Riff K (4x) (3:01):
#25t2#|--------------------|
|--------------------|
|--------------------|
|------0-3-4-1-6-8-9-|
|--0-3-4-1-6-8-9-|
|------0-3-4-1-6-8-9-|
               ' '#/25t2##/25t1#


Play RIFF K (4x) (3:11) (Without Tremolo Picking)
Play RIFF K (4x) (3:19) (Palm Muted with Tremolo Picking)


#26t1#Riff L (3:28):
#26t2#|----|
|----|
|----|
|-0~-|
|-0~-|
|-0~-|#/26t2##/26t1#


#27t1#Riff M (4x) (3:46):
#27t2#|---------------|
|---------------|
|---------------|
|---------------|
|---------------|
|-0-0-0-3-3-3-2-|
  . . . . . . .#/27t2##/27t1#


#28t1#Riff N (11x) (3:55) (After 9 times played, don't play Palm Muted):
#28t2#|------------------------------|
|------------------------------|
|------------------------------|
|------------------------------|
|------------------------------|
|-0-0-0-3-3-3-2--5-5-5-3-3-7-7-|
  . . . . . . .  . . . . . . .#/28t2##/28t1#


#29t1#Riff O (1x) (4:19):
#29t2#|-----|
|-----|
|-----|
|-----|
|-----|
|-22\-|#/29t2##/29t1#


Play RIFF K (11x) (4:21) (Palm Muted with Tremolo Picking)


#30t1#Riff P (2x) (4:44):
#30t2#|------------|
|------------|
|------------|
|------0-3-4-|
|--0-3-4-|
|------0-3-4-|
       . . .#/30t2##/30t1#


Play RIFF O (1x) (4:48)
Play RIFF K (8x) (4:48) (Without Tremolo Picking; 8th time play Palm Muted)
Composição: Jay Weinberg / Mick Thomson / Sid Wilson / Alessandro Venturella / Allan Rock / Anders Colsefni / Chris Fehn / Corey Taylor / Craig Jones / James Root / Jim Root / Joey Jordison / Josh Brainard / M. Shawn Crahan / Mick Thomson / Paul Gray / Ritch Ronnan / Shawn Crahan / Sid Wilson / Slipknot / Slipknot feat Linkin ParkColaboração e revisão: