busca

Do Nothing/Bitchslap

Slipknot

Tom: G
Afinação(C,G,C,F,A,D)

D|------------------------------|
A|------------------------------|
F|------------------------------|
C|--0-0-0-0-3--0-0-0-0-3--0-0-4-|
G|--0-0-0-0-3--0-0-0-0-3--0-0-4-|
C|--0-0-0-0-3--0-0-0-0-3--0-0-4-|

|-----------------------------------------12--15----14h12--14-12------------15--14--13--12--|
|--14--13--12--11-----------------14--13--12--15----12-12--12-12--12--11----15--14--13--12--|
|--13--12--11--10--9--10--11--12--13--12--12--15----12-12--12-12--11--10--------------------|
|------------------8---9--10--11------------------------------------------------------------|
|-------------------------------------------------------------------------------------------|
|-------------------------------------------------------------------------------------------|

|--15--16--17--18-19-20-|
|--15--16--17--18-19-20-|
|-----------------------|
|-----------------------|
|-----------------------|
|-----------------------|


|-------------------|
|-------------------|
|-------------------|
|--8p7-9p8-10p9-9p8-|
|--8p7-9p8-10p9-9p8-|
|--8p7-9p8-10p9-9p8-|


|--7/8-8-x-x-4-5-4-5----7/8-8-x-x-4-x-x-4-5-| 
|--7/8-8-x-x-4-5-4-5----7/8-8-x-x-4-x-x-4-5-| 
|--7/8-8-x-x-4-5-4-5----7/8-8-x-x-4-x-x-4-5-| 
|-------------------------------------------| 
|-------------------------------------------| 
|-------------------------------------------| 


|--3-----3-6--8-|-5--5-|
|--3-----3-6--8-|-5--5-|
|--3-----3-6--8-|-5--5-|
|---------------|------|
|---------------|------|
|---------------|------|

Clipes

Cifra Club Pro

Aproveite o Cifra Club com benefícios exclusivos e sem anúncios
7 dias grátis
Cifra Club Pro
Aproveite o Cifra Club com benefícios exclusivos e sem anúncios
7 dias grátis