Eyeore

Slipknot

Tom: G
Tabbed by:Tyler Savage
Email:H*, add me if you got questions.

Tuning:B F# B 

| /  slide
| p  pull-off
| .  Mute note
| *  Finger Mute

#1t1##1t2#e|------------------------------------------------------------------------|
B|------------------------------------------------------------------------|
G|------------------------------------------------------------------------|
D|------------------------------------------------------------------------|
A|*-*-*-15----------------------------------------------------------------|
E|*-*-*-15--X13-----------------------------------------------------------|#/1t2##/1t1#

#2t1##2t2#e|------------------------------------------------------------------------|
B|------------------------------------------------------------------------|
G|------------------------------------------------------------------------|
D|------------------------------------------------------------------------|
A|7-7-7-7-7-7-7-7-3-3-3-3-2-2-2-2-----------------------------------------|
E|7-7-7-7-7-7-7-7-3-3-3-3-2-2-2-2---X4------------------------------------|#/2t2##/2t1#

#3t1##3t2#e|------------------------------------------------------------------------|
B|------------------------------------------------------------------------|
G|------------------------------------------------------------------------|
D|------------------------------------------------------------------------|
A|------------------------------------------------------------------------|
E|7-7-7-7-7-7-7-7-3-3-3-3-2-2-2-2---X2------------------------------------|#/3t2##/3t1#

#4t1##4t2#e|------------------------------------------------------------------------|
B|------------------------------------------------------------------------|
G|------------------------------------------------------------------------|
D|------------------------------------------------------------------------|
A|7-7-7-7-7-7-7-7-3-3-3-3-2-2-2-2-----------------------------------------|
E|7-7-7-7-7-7-7-7-3-3-3-3-2-2-2-2---X4------------------------------------|#/4t2##/4t1#

#5t1##5t2#e|-------------------------------------------------------------------------|
B|-------------------------------------------------------------------------|
G|-------------------------------------------------------------------------|
D|---------------------------------------------------------------------4---|
A|0-------------------3p0-0--3p0-0--5-6--0-----------------------5--3------|
E|0-0-0-0-0-0-0-0-0-0-3p0-0--3p0-0--5-6--0-0-0-0-0-0-0-0-0-0--3----------X6|
    . . . . . . . . .                      . . . . . . . . .#/5t2##/5t1#

#6t1##6t2#e|-------------------------------------------5-5---------------------------|
B|-------------------------------6-6---4-4---------------------------------|
G|--------------------------3-3--------------------------------------------|
D|-------------------------------------------------------------------------|
A|-0-0--3p0-0--3p0-0--5-6--------------------------------------------------|
E|-0-0--3p0-0--3p0-0--5-6----------------------------X5--------------------|#/6t2##/6t1#

#7t1##7t2#e|-------------------------------------------------------------------------|
B|-------------------------------------------------------------------------|
G|-------------------------------------------------------------------------|
D|-------------------------------------------------------------------------|
A|12/0---7-7-7-7-7-7-7-7-3-3-3-3-2-2-2-2-----------------------------------|
E|12/0---7-7-7-7-7-7-7-7-3-3-3-3-2-2-2-2---X4------------------------------|#/7t2##/7t1#
play 12/0 only the first time

#8t1##8t2#e|-------------------------------------------------------------------------|
B|-------------------------------------------------------------------------|
G|-------------------------------------------------------------------------|
D|-------------------------------------------------------------------------|
A|*-*-*-15------*-*-*------------------------------------------------------|
E|*-*-*-15--X4--*-*-*------------------------------------------------------|#/8t2##/8t1#

#9t1##9t2#e|-------------------------------------------------------------------------|
B|-------------------------------------------------------------------------|
G|-------------------------------------------------------------------------|
D|-------------------------------------------------------------------------|
A|-12/0--------------------------------------------------------------------|
E|-12/0--------------------------------------------------------------------|#/9t2##/9t1#

Strum 0 over and over

============================================================================
Composição: Jay Weinberg / Mick Thomson / Sid Wilson / Alessandro Venturella / Allan Rock / Anders Colsefni / Chris Fehn / Corey Taylor / Craig Jones / James Root / Jim Root / Joey Jordison / Josh Brainard / M. Shawn Crahan / Mick Thomson / Paul Gray / Ritch Ronnan / Shawn Crahan / Sid Wilson / Slipknot / Slipknot feat Linkin ParkColaboração e revisão: