Fuck It All

Slipknot

Tom: G
#1t1#(riff 1)
#1t2#|----------------|
|----------------|
|----------------|
|----------------|
|-5-2--5-8--5-2--|
|-3-0--3-6--3-0--|#/1t2##/1t1#

(riff 2)
p.m......     (8x)
#2t1##2t2#|----------------|
|----------------|
|----------------|
|----------9-----|
|------------8-7-|
|-000-000--------|#/2t2##/2t1#

#3t1##3t2#|-------------------|
|-------------------|
|-------------------|
|-9-----8-----7-----|
|---8-7---7-6---6-5-|
|-------------------|#/3t2##/3t1#

(riff 3)
p.m...............
#4t1##4t2#|-----------------|
|-----------------|
|-----------------|
|-----------------|
|-----------------|
|-3-3-2-0-3-4-3-0-|#/4t2##/4t1#

(refrão)

(guitarra 1)
p.m.....................................
#5t1##5t2#|---------------------------------------|
|---------------------------------------|
|---------------------------------------|
|---------------------------------------|
|---------------------------------------|
|-000-000---000-000---000-000---000-000-|#/5t2##/5t1#

#6t1#(guitarra 2)                          
#6t2#|---------------------------------------|
|---------------------------------------|
|-8b~~~~8b~~~~8b~~~~8b~~~~8b~~~~8b~~~~~-|
|---------------------------------------|
|---------------------------------------|
|---------------------------------------|#/6t2##/6t1#

(riff 4)
p.m...............
#7t1##7t2#|-----------------|
|-----------------|
|-----------------|
|-----------------|
|-----------------|
|-1-1/4-4-000-000-|#/7t2##/7t1#

(refrão)

(guitarra 1)
p.m.........................................................................
#8t1##8t2#|-------------------------------------|-------------------------------------|
|-------------------------------------|-------------------------------------|
|-------------------------------------|-------------------------------------|
|-------------------------------------|-------------------------------------|
|-------------------------------------|-------------------------------------|
|000-000---000-000---000-000---000-000|000-000---000-000---000-000---000-000|#/8t2##/8t1#

#9t1#(guitarra 2)
#9t2#|p.m...................................|
|--------------------------------------|------------------------------------|
|--------------------------------------|------------------------------------|
|--------------------------------------|8b~~~~8b~~~~8b~~~~8b~~~~8b~~~~8b~~~~|
|--------------------------------------|------------------------------------|
|--------------------------------------|------------------------------------|
|-0-0-0-0-0-0-0-0-0-0-0-0-0-0-0-0-0-0-0|------------------------------------|#/9t2##/9t1#

(solo)

#10t1##10t2#|-19^-19^-16161617191716-1414151715141514----------------------------|
|------------------------------------------1714141517171514----------|
|-----------------------------------------------------------161416~/-|
|--------------------------------------------------------------------|
|--------------------------------------------------------------------|
|--------------------------------------------------------------------|#/10t2##/10t1#

#11t1##11t2#|-----------------------------------------------------141415171514------|
|---------------------------------------------141517-------------171514-|
|--------------------------14-----1415--141517--------------------------|
|--------14----1415--141517---1517----17--------------------------------|
|--141517--1517----17---------------------------------------------------|
|-----------------------------------------------------------------------|#/11t2##/11t1#

#12t1##12t2#|----------------------------|
|----------------------------|
|-161416~-16~-16~-16/--------|
|----------------------------|
|----------------------------|
|-----------------------19//-|#/12t2##/12t1#

#13t1#p.m.........................
#13t2#|---------------------------|
|---------------------------|
|---------------------------|
|---------------------------|
|---------------------------|
|-3-0-3-0-3-2---3-0-3-0-3-6-|#/13t2##/13t1#

(riff 5)
p.m..............
#14t1##14t2#|----------------|
|----------------|
|----------------|
|----------------|
|-----------7777-|
|-000000000------|#/14t2##/14t1#

(riff 6)
p.m.....................
#15t1##15t2#|-----------------------|
|-----------------------|
|-----------------------|
|-----------------------|
|-----------------------|
|-55555-44444-0000-11111|#/15t2##/15t1#

(riff 7) I never said......
p.m......................................
#16t1##16t2#|---------------------------------------|
|---------------------------------------|
|---------------------------------------|
|---------------------------------------|
|---------------------------------------|
|-0000-3333-22222-0000-22-333-7777-6666-|#/16t2##/16t1#

#17t1#(riff 8)
#17t2#|----------------------------------|
|----------------------------------|
|-------------------------fdbk-----|
|----------------------------------|
|--2--5--4--2-4-5--9--8----(8)-----|
|--0--3--2--0-2-3--7--6----(6)-----|#/17t2##/17t1#

#18t1#p.m....................................
#18t2#|--------------------------------------|
|--------------------------------------|
|--------------------------------------|
|--------------------------------------|
|--------------------------------------|
|--3-3-3--6-6-6--2-2-2-2-2-2-2-2-2-2-2-|#/18t2##/18t1#

#19t1#p.m...................................
#19t2#|-------------------------------------|
|-------------------------------------|
|-------------------------------------|
|-------------------------------------|
|-------------------------------------|
|--3-3-3--6-6-6--5-5-5--2-2-2-2-2-2-2-|#/19t2##/19t1#

#20t1#p.m.....................................
#20t2#|--------------------------------------|
|--------------------------------------|
|--------------------------------------|
|--------------------------------------|
|--------------------------------------|
|--3-3-3--6-6-6--5-5-5--6-6-6--2-2-2-2-|#/20t2##/20t1#

#21t1#p.m....................................
#21t2#|--------------------------------------|
|--------------------------------------|
|--------------------------------------|
|--------------------------------------|
|--------------------------------------|
|--3-3-3--6-6-6--2-2-2-2-2-2-2-2-2-2-2-|#/21t2##/21t1#

#22t1#part 1
#22t2#|--------------------------------------|
|--------------------------------------|
|--------------------------------------|
|--------------------------------------|
|--5-5-5--8-8-8--4-4-4-4-4-4-4-4-4-4-4-|
|--3-3-3--6-6-6--2-2-2-2-2-2-2-2-2-2-2-|#/22t2##/22t1#

#23t1##23t2#|-------------------------------------|
|-------------------------------------|
|-------------------------------------|
|-------------------------------------|
|--5-5-5--8-8-8--7-7-7--4-4-4-4-4-4-4-|
|--3-3-3--6-6-6--5-5-5--2-2-2-2-2-2-2-|#/23t2##/23t1#

#24t1##24t2#|--------------------------------------|
|--------------------------------------|
|--------------------------------------|
|--------------------------------------|
|--5-5-5--8-8-8--7-7-7--8-8-8--4-4-4-4-|
|--3-3-3--6-6-6--5-5-5--6-6-6--2-2-2-2-|#/24t2##/24t1#

#25t1##25t2#|--------------------------------------|
|--------------------------------------|
|--------------------------------------|
|--------------------------------------|
|--5-5-5--8-8-8--4-4-4-4-4-4-4-4-4-4-4-|
|--3-3-3--6-6-6--2-2-2-2-2-2-2-2-2-2-2-|#/25t2##/25t1#
Composição: Colaboração e revisão: Lucas Lago