Gehenna

Slipknot

C#
234
X46664
G#
234
431114
Tom: G
Tuning: Drop A

Guitar 1:
C#||------------------------------------|-------------------------|
G#||------------------------------------|-------------------------|
#1t1##1t2#E|------------------------------------|---------------------------| x2
B|------------------------------------|--------3-----------2------|
F#|------------------------------------|-----3-----3-----2-----2--|
B|--/19--18--18--18S--10--11--11S--3--|--------------2------------|#/1t2##/1t1#

||------------------------------------|--------------------------|
||------------------------------------|--------------------------|
||------------------------------------|--------------------------|
||------------------------------------|--------3-----------2-----|
||------------------------------------|-----3-----3-----2-----2--|
||--/19--18--18--18S--10--11--11S--3--|--------------2-----------|
|
|Guitar 2:                                                     x2
#2t1##2t2#|------------------------------------|--------------------------|
|------------------------------------|--------------------------|
|------------------------------------|--------------------------|
|--/19--18--18--18S--10--11--11S--3--|--------3-----------2-----|
|------------------------------------|-----3-----3-----2-----2--|
|--/19--18--18--18S--10--11--11S--3--|--------------2-----------|#/2t2##/2t1#

#3t1#Guitar 1 & 2:
#3t2#|------------------------------------|--------------------------|
|------------------------------------|--------------------------|
|------------------------------------|--------------------------|
|--/19--18--18--18S--10--11--11S--3--|--------3-----------2-----| x4
|--/19--18--18--18S--10--11--11S--3--|-----3-----3-----2-----2--|
|--/19--18--18--18S--10--11--11S--3--|--------------2-----------|#/3t2##/3t1#

#4t1##4t2#|-------------------|
|-------------------|
|-------------------|
|-------------------| Hold for a long time
|--0~---------------|
|--0~---------------|#/4t2##/4t1#

#5t1#Guitar 1 & 2:
#5t2#|------------------------------------|--------------------------|
|------------------------------------|--------------------------|
|------------------------------------|--------------------------|
|--/19--18--18--18S--10--11--11S--3--|--------3-----------2-----| x4
|--------------------10--11--11S--3--|-----3-----3-----2-----2--|
|--/19--18--18--18S--10--11--11S--3--|--------------2-----------|#/5t2##/5t1#


#6t1#Guitar 1:
#6t2#|-------------------|--------------------|-------------------|
|-------------------|--------------------|-------------------|
|-------------------|--------------------|-------------------|
|-------------------|--------------------|-------------------|
|--0----------------|--9--------8--------|--0----------------|
|--0----------------|--------------------|--0----------------|
|#/6t2##/6t1#
#7t1#|Guitar 2:
#7t2#|-------------------|--------------------|-------------------|
|-------------------|--------------------|-------------------|
|-------------------|--------------------|-------------------|
|-------------------|--------------------|-------------------|
|--0----------------|--0--------0--------|--0----------------|
|--0----------------|--1--------0--------|--0----------------|#/7t2##/7t1#

#8t1##8t2#|---------------------||
|---------------------||
|---------------------||
|---------------------||
|--9--------12--------||
|---------------------||
|#/8t2##/8t1#
#9t1##9t2#|--------------------||
|--------------------||
|--------------------||
|--------------------||
|--0--------0--------||
|--0--------1--------||#/9t2##/9t1#

#10t1#Guitar 1:
#10t2#|---------------------------------------------------|--------------------|
|---------------------------------------------------|--------------------|
|--5/--14-14-14-14-14-14-14-14-14-14-14-14-14\------|--------------------|
|---------------------------------------------------|--------------------|
|--3/--12-12-12-12-12-12-12-12-12-12-12-12-12\------|--9--------8--------|
|---------------------------------------------------|--------------------|
|#/10t2##/10t1#
#11t1#|Guitar 2:
#11t2#|---------------------------------------------------|--------------------|
|---------------------------------------------------|--------------------|
|---------------------------------------------------|--------------------|
|-------3--3--3--3--3--3--3--3--3--3--3--3--3\------|--------------------|
|-------3--3--3--3--3--3--3--3--3--3--3--3--3\------|--0--------0--------|
|-------3--3--3--3--3--3--3--3--3--3--3--3--3\------|--1--------0--------|#/11t2##/11t1#

#12t1#Guitar 1:
#12t2#|---------------------------------------------------|--------------------|
|---------------------------------------------------|--------------------|
|--5/--14-14-14-14-14-14-14-14-14-14-14-14-14\------|--------------------|
|---------------------------------------------------|--------------------|
|--3/--12-12-12-12-12-12-12-12-12-12-12-12-12\------|--9--------12-------|
|---------------------------------------------------|--------------------|
|#/12t2##/12t1#
#13t1#|Guitar 2:
#13t2#|---------------------------------------------------|--------------------|
|---------------------------------------------------|--------------------|
|---------------------------------------------------|--------------------|
|-------3--3--3--3--3--3--3--3--3--3--3--3--3\------|--------------------|
|-------3--3--3--3--3--3--3--3--3--3--3--3--3\------|--0--------0--------|
|-------3--3--3--3--3--3--3--3--3--3--3--3--3\------|--0--------1--------|#/13t2##/13t1#

#14t1#Guitar 1:
#14t2#|---------------------------------------------------|--------------------|
|---------------------------------------------------|--------------------|
|--5/--14-14-14-14-14-14-14-14-14-14-14-14-14\------|--------------------|
|---------------------------------------------------|--------------------|
|--3/--12-12-12-12-12-12-12-12-12-12-12-12-12\------|--9--------8--------|
|---------------------------------------------------|--------------------|
|#/14t2##/14t1#
#15t1#|Guitar 2:
#15t2#|---------------------------------------------------|--------------------|
|---------------------------------------------------|--------------------|
|---------------------------------------------------|--------------------|
|-------3--3--3--3--3--3--3--3--3--3--3--3--3\------|--------------------|
|-------3--3--3--3--3--3--3--3--3--3--3--3--3\------|--0--------0--------|
|-------3--3--3--3--3--3--3--3--3--3--3--3--3\------|--1--------0--------|#/15t2##/15t1#

#16t1#Guitar 1:
#16t2#|---------------------------------------------------------------------|
|---------------------------------------------------------------------|
|--5/--16-16-16-16-16-16-16-16-16-16-16-16-16-16-16-16-16-16-16-16-16-|
|---------------------------------------------------------------------|
|--3/--14-14-14-14-14-14-14-14-14-14-14-14-14-14-14-14-14-14-14-14-14-|
|---------------------------------------------------------------------|
|#/16t2##/16t1#
#17t1#|Guitar 2:
#17t2#|---------------------------------------------------------------------|
|---------------------------------------------------------------------|
|---------------------------------------------------------------------|
|-------3--3--3--3--3--3--3--3--3--3--3--3--3--3--3--3--3--3--3--3--3-|
|-------3--3--3--3--3--3--3--3--3--3--3--3--3--3--3--3--3--3--3--3--3-|
|-------3--3--3--3--3--3--3--3--3--3--3--3--3--3--3--3--3--3--3--3--3-|#/17t2##/17t1#

#18t1#Guitar 1:
#18t2#|-----------------------------------------------------------------------|
|-----------------------------------------------------------------------|
|--16-16-16-16-16-16-16-16-16-16-16-16-16-16-16-16-16-16-16-16-16-16-16-|
|-----------------------------------------------------------------------|
|--16-14-14-14-14-14-14-14-14-14-14-14-14-14-14-14-14-14-14-14-14-14-14-|
|-----------------------------------------------------------------------|
|#/18t2##/18t1#
#19t1#|Guitar 2:
#19t2#|----------------------------------------------------------------------|
|----------------------------------------------------------------------|
|----------------------------------------------------------------------|
|--3--3--3--3--3--3--3--3--3--3--3--3--3--3--3--3--3--3--3--3--3--3--3-|
|--3--3--3--3--3--3--3--3--3--3--3--3--3--3--3--3--3--3--3--3--3--3--3-|
|--3--3--3--3--3--3--3--3--3--3--3--3--3--3--3--3--3--3--3--3--3--3--3-|#/19t2##/19t1#

Pre Chorus:

#20t1#Guitar 1 & 2:
#20t2#------------------------|-------------------------|------------------------|
------------------------|-------------------------|------------------------|
------------------------|-------------------------|------------------------|
--5----5----5--5--5--8--|-----8--8--2----2--2--2--|--5--5--5--5--5--5--5--5|
--5----5----5--5--5--8--|-----8--8--2----2--2--2--|--5--5--5--5--5--5--5--5|
--5----5----5--5--5--8--|-----8--8--2----2--2--2--|--5--5--5--5--5--5--5--5|#/20t2##/20t1#

#21t1##21t2#--------------------------|
--------------------------|
--------------10-10-10-9--|
--8--8--8--8--------------|
--8--8--8--8--8--8--8--7--|
--8--8--8--8--------------|#/21t2##/21t1#

#22t1#Chorus:
#22t2#------------------------------|--------------------------|
------------------------------|--------------------------|
-------14--14--14-------------|--------------------------|
--0----------------10--0--10--|-----10--10--5----3----5--|
--0----12--12--12--10--0--10--|-----10--10--5----3----5--|
--0----------------10--0--10--|-----10--10--5----3----5--|#/22t2##/22t1#
#23t1#                                                        x4
#23t2#------------------------|-------------------------||
------------------------|-------------------------||
------------------------|-------------------------||
------------------------|-------------------------||
--2----2----2--2--2--5--|-----5--5--8----8--8--8--||
--2----2----2--2--2--5--|-----5--5--8----8--8--8--||#/23t2##/23t1#

#24t1#Clean part before the solo:
#24t2#-----------------------6--|--------------------------|
-----------10-----5--6----|--------10--------10------|
--------7-----7-----------|--9--7-----10--9-----9--7-|
--9--11-------------------|--------------------------|
--------------------------|--------------------------|
--------------------------|--------------------------|#/24t2##/24t1#

#25t1##25t2#--------------------------|
-10--------11--------10---|
-----10--9-----9--7-----9-|
--------------------------|
--------------------------|
--------------------------|#/25t2##/25t1#

I haven't figured out the solo yet sorry

#26t1##26t2#|-------------------|
|-------------------|
|-------------------|
|-------------------|
|--0~---------------|
|--0~---------------|#/26t2##/26t1#

#27t1#Guitar 1 & 2:
#27t2#-------------------|--------------------------|--------------------------|
-------------------|--------------------------|--------------------------|
-------------------|--------------------------|--------------------------|
-------------------|-----5--5--------------8--|--------------------------|
-------------------|--5--5--5--5--5--5--5--8--|--8--8--8--2--2--2--2--2--|
-------------------|--5--5--5--5--5--5--5--8--|--8--8--8--2--2--2--2--2--|#/27t2##/27t1#
                      .        Pm-------->       Pm-------------------->

#28t1##28t2#--------------------------|--------------------------|
--------------------------|--------------------------|
--------------------------|--------------10-10-10-9--|
--------------------------|--------------------------|
--5--5--5--5--5--5--5--8--|--8--8--8--8--8--8--8--7--|
--5--5--5--5--5--5--5--8--|--8--8--8--8--------------|#/28t2##/28t1#
  Pm---------------------------------->

#29t1##29t2#--------------------------|--------------------------|
--------------------------|--------------------------|
--------------------------|--------------------------|
--------------------------|--------------------------|
--5--5--5--5--5--5--5--8--|--8--8--8--2--2--2--2--2--|
--5--5--5--5--5--5--5--8--|--8--8--8--2--2--2--2--2--|#/29t2##/29t1#
Pm------------------------------------------------->

#30t1##30t2#--------------------------|--------------------------|
--------------------------|--------------------------|
--------------------------|--------------10-10-10-9--|
--------------------------|--------------------------|
--5--5--5--5--5--5--5--8--|--8--8--8--8--8--8--8--7--|
--5--5--5--5--5--5--5--8--|--8--8--8--8--------------|#/30t2##/30t1#
  Pm---------------------------------->

#31t1#Chorus:
#31t2#------------------------------|--------------------------|
------------------------------|--------------------------|
-------14--14--14-------------|--------------------------|
--0----------------10--0--10--|-----10--10--5----3----5--|
--0----12--12--12--10--0--10--|-----10--10--5----3----5--|
--0----------------10--0--10--|-----10--10--5----3----5--|#/31t2##/31t1#
#32t1#                                                        x10
#32t2#------------------------|-------------------------||
------------------------|-------------------------||
------------------------|-------------------------||
------------------------|-------------------------||
--2----2----2--2--2--5--|-----5--5--8----8--8--8--||
--2----2----2--2--2--5--|-----5--5--8----8--8--8--||#/32t2##/32t1#

#33t1##33t2#|-------------------|
|-------------------|
|-------------------|
|-------------------|
|--0~---------------|
|--0~---------------|#/33t2##/33t1#

That's it, again sorry for not tabbing out the solo and the lead part at the end

if I ever tab the solo I'll just add it to the tab!
Composição: SlipknotColaboração e revisão: Raul Rodrigues