busca

Gematria (the Killing Name)

Slipknot

Tom: B
Legenda:
 / - Slide Up          b - Bend
 h - Hammer On         p - Pull Off
 \ - Slide Down        T.P - Tremolo Picking
 P.M - Palm Mute

Afinação: B (C#,G#,E,B,F#,B)

C#||----------------------------------------------|
G#||----------------------------------------------|
E ||----------------------------------------------|
B ||--4----3--------------------------------------|
F#||--2----1-------2----3-------7h8p7-6h7p6-5h6p5-|
B ||----0----0--0--2-0--3-0--0--------------------|

C#||----------------------------------------------------|
G#||----------------------------------------------------|
E ||----------------------------------------------------|
B ||--4----3--------------------------------------------|
F ||--2----1-------2----3-------5h6p5-------4h5p4-2h3p2-|
B ||----0----0--0--2-0--3-0--0--------0--0--------------|

C#||-----------------------------------------|
G#||-----------------------------------------|
E ||-----------------------------------------|
B ||------------------5--------4-------------|
F ||------------------6--------5--------2/3--|
B ||----2h3p2---0--0-----0--0-----0--0--2/3--|

C#||-------------------------------------|
G#||-------------------------------------|
E ||-------------------------------------|
B ||--------3/4--------------------------|
F ||--------1/2------7h8p7---------6h7p6-|
B ||--0--0-------0-0-------7h8p7---------|

C#||------------------------------------------------||
G#||------------------------------------------------||
E ||*----------------------------------------------*||
B ||*--------4----3--------------------------------*||   4X
F ||---------2----1-------2----3--------------------||
B ||---0--0----0----0--0--2-0--3-0--0--0--0--5h8p5--||

C#||---------------------------------------||----------------------------------|
G#||---------------------------------------||----------------------------------|
E ||*-------------------------------------*||----------------------------------|
B ||*-------------------------------------*||-------------------------------5--|
F ||---------9--8----2--3------------------||--------9--8----2--3-----------6--|
B ||---0--0--9--8----2--3--0--0--0--5h8p5--||--0--0--9--8----2--3--0--0--0-----|

C#||-----------------------------------------|
G#||-----------------------------------------|
E ||-----------------------------------------|
B ||--------4------------------3/4--------5--|
F ||--------5--------2/3-------1/2--------6--|
B ||--0--0-----0--0--2/3-0--0-------0--0-----|

C#||------------------------------------------|------------------------------|
G#||------------------------------------------|------------------------------|
E ||------------------------------------------|------------------------------|
B ||--------4------------------3/4--------5---|--------4---------------------|
F ||--------5--------2/3-------1/2--------6---|--------5--------3/4\2/3-1/2--|
B ||--0--0-----0--0--2/3-0--0-------0--0------|--0--0-----0--0--3/4\2/3-1/2--|



C#||-------------------------------------------------||
G#||-------------------------------------------------||
E ||*-----------------------------------------------*||
B ||*-----------------------------------------------*||   4X
F ||---0h1---------------------0h1--------------2h3--||
B ||---0h1-0--2-0--5-0--0--0h1-0--3-0--0--2h3--||

C#||-----------------------------------------|
G#||-----------------------------------------|
E ||-----------------------------------------|
B ||--------------4--------------------------|
F ||--0h1----2----2-------0h1----2----6----3-|
B ||--0h1-0--2-0----0--0--0h1-0--2-0--6-0--3-|

C#||-------------------------------------|
G#||-------------------------------------|
E ||-------------------------------------|
B ||--------------4----------------------|
F ||--0h1----2----2--------------3-------|
B ||--0h1-0--2-0----0--0--2------3---|

C#||-----------------------------------------|
G#||-----------------------------------------|
E ||-----------------------------------------|
B ||--------------4--------------------------|
F ||--0h1----2----2-------0h1----2----6----3-|
B ||--0h1-0--2-0----0--0--0h1-0--2-0--6-0--3-|

C#||----------------------------------------------|
G#||----------------------------------------------|
E ||----------------------------------------------|
B ||--------------4-------------------------------|
F ||--0h1----2----2-------5--6--4--4--3--3--2--2--|
B ||--0h1-0--2-0----0--0--5--6--4--4--3--3--2--2--|
                |-------------P.M----------|

C#||-----------------------------------------|
G#||-----------------------------------------|
E ||-----------------------------------------|
B ||--------------4--------------------------|
F ||--0h1----2----2-------0h1----2----6----3-|
B ||--0h1-0--2-0----0--0--0h1-0--2-0--6-0--3-|

C#||-------------------------------------|
G#||-------------------------------------|
E ||-------------------------------------|
B ||--------------4----------------------|
F ||--0h1----2----2--------------3-------|
B ||--0h1-0--2-0----0--0--2------3---|

C#||-----------------------------------------|------------------------------|
G#||-----------------------------------------|------------------------------|
E ||-----------------------------------------|------------------------------|
B ||--------------4--------------------------|--------------4---------------|
F ||--0h1----2----2-------0h1----2----6----3-|--0h1----2----2-------2/12\2--|
B ||--0h1-0--2-0----0--0--0h1-0--2-0--6-0--3-|--0h1-0--2-0----0--0--2/12\2--|


C#||------------------------------|------------------------------------|
G#||------------------------------|----------------------------9-9-8-8-|
E ||------------------------------|------------------------------------|
B ||--5--5----------4--4----------|--5--5----------6--7--6--5----------|
F ||--3--3-6--6-5-0-2--2-6--6-5-0-|--3--3-6--6-5-0---------------------|
B ||-------6--6-5-0------6--6-5-0-|-------6--6-5-0---------------------|
                                              |---P.M---|

C#||-------------------------------------------||--------------------------||
G#||-------------------------------------------||--------------------------||
E ||*-----------------------------------------*||*------------------------*||
B ||*--------------4--------------------------*||*------------------------*||   4X
F ||---0h1----2----2-------0h1----2----6----3--||-----------3----------7---||
B ||---0h1-0--2-0----0--0--0h1-0--2-0--6-0--3--||---0---1-------3---6------||
                                                |---------T.P--------|

C#||------------------------------|------------------------------------|
G#||------------------------------|----------------------------9-9-8-8-|
E ||------------------------------|------------------------------------|
B ||--5--5----------4--4----------|--5--5----------6--7--6--5----------|
F ||--3--3-6--6-5-0-2--2-6--6-5-0-|--3--3-6--6-5-0---------------------|
B ||-------6--6-5-0------6--6-5-0-|-------6--6-5-0---------------------|
                                                |---P.M---|

C#||------------------------------|-------------------------------------|
G#||------------------------------|-------------------------------------|
E ||------------------------------|-------------------------------------|
B ||--5--5----------4--4----------|--5--5-------------------------------|
F ||--3--3-6--6-5-0-2--2-6--6-5-0-|--3--3-6--6-5-0-------------------1--|
B ||-------6--6-5-0------6--6-5-0-|-------6--6-5-0-5--6--5--3--4--2--1--|
                                                |-------P.M-------|

C#||-----------------------------------|-----------------------------------|
G#||-----------------------------------|-----------------------------------|
E ||-----------------------------------|-----------------------------------|
B ||-----------------------------------|--------------------------------8--|
F ||--0--5--6--5--5--6--5--4--5--4--1--|--0--5--6--5--5--6--5--4--5--4--6--|
B ||--0--5--6--5--5--6--5--4--5--4--1--|--0--5--6--5--5--6--5--4--5--4-----|
                 |-----P.M-----|                    |------P.M-----|

C#||-----------------------------------|------------------------------|
G#||-----------------------------------|------------------------------|
E ||-----------------------------------|------------------------------|
B ||--7--------------------------------|--------------8-7-5---7-5-----|
F ||--5--5--6--5--5--6--5--4--5--4--1--|--0--5--6--5--------6-----6-5-|
B ||-----5--6--5--5--6--5--4--5--4--1--|--0--5--6--5------------------|
               |------P.M------|

C#||-----------------------------------|-----------------------------------|
G#||-----------------------------------|-----------------------------------|
E ||-----------------------------------|-----------------------------------|
B ||-----------------------------------|--------------------------------8--|
F ||--0--5--6--5--5--6--5--4--5--4--1--|--0--5--6--5--5--6--5--4--5--4--6--|
B ||--0--5--6--5--5--6--5--4--5--4--1--|--0--5--6--5--5--6--5--4--5--4-----|
               |-------P.M------|                  |-------P.M------|

C#||-----------------------------------|-----------------|
G#||-----------------------------------|-----------------|
E ||-----------------------------------|-----------------|
B ||--7--------------------------------|--------------7--|
F ||--5--5--6--5--5--6--5--4--5--4--1--|--0--5--6--5--5--|
B ||-----5--6--5--5--6--5--4--5--4--1--|--0--5--6--5-----|
                |-------P.M-------|

C#||-----------------------------------|-----------------------------------|
G#||-----------------------------------|-----------------------------------|
E ||-----------------------------------|-----------------------------------|
B ||--------------------------------8--|--7-----------------------------8--|
F ||--0--5--6--5--5--6--5--4--5--4--6--|--5--5--6--5--5--6--5--4--5--4--6--|
B ||--0--5--6--5--5--6--5--4--5--4-----|-----5--6--5--5--6--5--4--5--4-----|
                 |-------P.M------|                  |-----P.M-----|

C#||-----------------------------------|-------------------------------|
G#||-----------------------------------|-------------------------------|
E ||-----------------------------------|-------------------------------|
B ||--7-----------------------------8--|--7----------------------------|
F ||--5--5--6--5--5--6--5--4--5--4--6--|--5--5--6--5-------------------|
B ||-----5--6--5--5--6--5--4--5--4-----|-----5--6--5--6~----3br----|
                |-----P.M-----|

C#||-----------------------------------|-----------------------------------|
G#||-----------------------------------|-----------------------------------|
E ||-----------------------------------|-----------------------------------|
B ||--------------------------------8--|--7-----------------------------8--|
F ||--0--5--6--5--5--6--5--4--5--4--6--|--5--5--6--5--5--6--5--4--5--4--6--|
B ||--0--5--6--5--5--6--5--4--5--4-----|-----5--6--5--5--6--5--4--5--4-----|
                 |-----P.M------|                    |-----P.M------|

C#||-----------------------------------|-------------------------------|-------|
G#||-----------------------------------|-------------------------------|-------|
E ||-----------------------------------|-------------------------------|-------|
B ||--7-----------------------------8--|--7----------------------------|-------|
F ||--5--5--6--5--5--6--5--4--5--4--6--|--5--5--6--5-------------------|-------|
B ||-----5--6--5--5--6--5--4--5--4-----|-----5--6--5--6~----3br----|-------|
                 |-----P.M-----|

Solo:
C#||--18-19-16-16-18----19-18-18-19-18----19-18----18-19-16-------18-19-16----18-19-|
G#||-----------------19----------------19-------18----------18-19----------18-------|
E ||--------------------------------------------------------------------------------|
B ||--------------------------------------------------------------------------------|
F ||--------------------------------------------------------------------------------|
B ||--------------------------------------------------------------------------------|

C#||--20-19-17-------------------------18-16-15-------------------18-19-16-17-------|
G#||-----------16-16-17-19-19-17-16-16----------16-16-17-19-17-16-------------16-17-|
E ||--------------------------------------------------------------------------------|
B ||--------------------------------------------------------------------------------|
F ||--------------------------------------------------------------------------------|
B ||--------------------------------------------------------------------------------|

C#||------------------------------|
G#||------------------------------|
E ||--15brb-----------------------|
B ||---------------16brb----------|
F ||------------------------------|
B ||------------------------------|

Repita isso por um tempo:
C#||--------------------------|-------------------------|
G#||--------------------------|-------------------------|
E ||--7--5--7--8--7--5--7--8--|--7--5--7--8--10----5----|
B ||--------------------------|-------------------------|
F ||--5--3--5--6--5--3--5--6--|--5--3--5--6---8----3----|
B ||--------------------------|-------------------------|

C#||--------------------------------|----------------------------|
G#||--------------------------------|----------------------------|
E ||--10--9--10--12--10--9--10--12--|--10--9--10--12--14----9----|
B ||--------------------------------|----------------------------|
F ||---8--7---8--10---8--7---8--10--|---8--7---8--10--12----7----|
B ||--------------------------------|----------------------------|

C#||-----------------------------------|-----------------------------------|
G#||-----------------------------------|-----------------------------------|
E ||-----------------------------------|-----------------------------------|
B ||--------------------------------8--|--7-----------------------------8--|
F ||--0--5--6--5--5--6--5--4--5--4--6--|--5--5--6--5--5--6--5--4--5--4--6--|
B ||--0--5--6--5--5--6--5--4--5--4-----|-----5--6--5--5--6--5--4--5--4-----|
                 |------P.M-----|                    |-----P.M-----|

C#||-----------------------------------|--------------------------|
G#||-----------------------------------|--------------------------|
E ||-----------------------------------|--------------------------|
B ||--7-----------------------------8--|--7-----------------------|
F ||--5--5--6--5--5--6--5--4--5--4--6--|--5--5--6--5/6----2--2--1-|
B ||-----5--6--5--5--6--5--4--5--4-----|-----5--6--5/6----2--2--1-|
                 |-----P.M-----|

C#||----------------------------------|
G#||----------------------------------|
E ||------------4---------------------|
B ||------------2---------------------|
F ||--0-0-0-1-----0-0-1-0-0-6-0-0-0-0-|
B ||--0-0-0-1-0---0-0-1-0-0-6-0-0-0-0-|


C#||-------------------------------|-------------------------------------||
G#||-------------------------------|----------------------------9-9-8-8--||
E ||*------------------------------|------------------------------------*||
B ||*--5--5----------4--4----------|--5--5----------6--7--6--5----------*||   4X
F ||---3--3-6--6-5-0-2--2-6--6-5-0-|--3--3-6--6-5-0----------------------||
B ||--------6--6-5-0------6--6-5-0-|-------6--6-5-0----------------------||
                                                   |---P.M----|

C#||-----------------------------------|-----------------------------------|
G#||-----------------------------------|-----------------------------------|
E ||-----------------------------------|-----------------------------------|
B ||-----------------------------------|--------------------------------8--|
F ||--0-----------5--6--5--4--5--4--1--|--0-----------5--6--5--4--5--4--6--|
B ||--0-----------5--6--5--4--5--4--1--|--0-----------5--6--5--4--5--4-----|
                 |-------P.M------|                  |-------P.M------|

C#||------------------------------------|--------------------------------------|
G#||------------------------------------|--------------------------------------|
E ||------------------------------------|--------------------------------------|
B ||--7---------------------------------|--------------------------------------|
F ||--5-----------0--0--0--0--0--0--0-0-|--0--0--5--6--5--5--6--5--4--5--4--1--|
B ||--------------0--0--0--0--0--0--0-0-|--0--0--5--6--5--5--6--5--4--5--4--1--|
                 |--------------------------P.M------------------------------|


C#||--------------------------------------|-----------------------------------|
G#||--------------------------------------|-----------------------------------|
E ||--------------------------------------|-----------------------------------|
B ||-----------------------------------8--|--7--------------------------------|
F ||--0--0--5--6--5--5--6--5--4--5--4--6--|--5--5--6--5--5--6--5--4--5--4--1--|
B ||--0--0--5--6--5--5--6--5--4--5--4-----|-----5--6--5--5--6--5--4--5--4--1--|
                     |------P.M------|                  |-------P.M------|


C#||--------------------------------------|-------------------------------|-------|
G#||--------------------------------------|-------------------------------|-------|
E ||--------------------------------------|-------------------------------|-------|
B ||-----------------------------------8--|--7----------------------------|-------|
F ||--0--0--5--6--5--5--6--5--4--5--4--6--|--5--5--6--5-------------------|-------|
B ||--0--0--5--6--5--5--6--5--4--5--4-----|-----5--6--5--6~----3br----|-------|
                     |------P.M------|

C#||----------------------------------||
G#||----------------------------------||
E ||------------4---------------------||
B ||------------2---------------------||
F ||--0-0-0-1-----0-0-1-0-0-6-0-0-0-0-||
B ||--0-0-0-1-0---0-0-1-0-0-6-0-0-0-0-||

Clipes

Cifra Club Pro

Aproveite o Cifra Club com benefícios exclusivos e sem anúncios
Cifra Club Pro
Aproveite o Cifra Club com benefícios exclusivos e sem anúncios