|2x| / |2x| Riff principal 1 / x x x x x x " /> |2x| / |2x| Riff principal 1 / x x x x x x ">
busca

Gently

Slipknot

Tom: A
E|-----------------------------------|
Afinação 1/2 abaixo


 INTRO                                                  

|E|-----------------------------------|--------------||--------3---------5p0------5----------------|
E|----------4p3------------3-----------------------| |--3h4-----4----------5---5---5--------------|
B|------5-------5-------5-----5---5-----4-5-5--5-4-| |------5-----5-----(7)----7-------4-5-5--5-4-|
G|----5---5-------5---5---5-----5-------5-6-6--6-5-| |-------(5)----5------------------5-6-6--6-5-|
D|--3---------------3------------------------------| |E|-----------------------------------|---------|
A|----------------------------------3--------------| |E|-----------------------------------|---------|

|E|-----------------------------------|---------||--------3---------5-0h5p0----5----------------|
E|--------4p3----------3----------------------| |--3h4-----4----------------5---5--------------|
B|----5-------5----5-----5---5----4-5-5--5-4--| |------5-----5-------(7)--7---------4-5-5--5-4-|
G|--5---5--------5---5-----5------5-6-6--6-5--| |-------(5)----5--------------------5-6-6--6-5-|
|E|-----------------------------------|---------||E|-----------------------------------|-----------|
A|-----------------------------3--------------| |E|-----------------------------------|-----------|


|E|-----------------------------------|---------||--------3---------5p0------5----------------|
E|--------4p3----------3----------------------| |--3h4-----4----------5---5---5--------------|
B|----5------5-----5-----5---5----4-5-5--5-4--| |------5-----5-----(7)--7---------4-5-5--5-4-|  |2x|
G|--5---5--------5---5-----5------5-6-6--6-5--| |-------(5)----5------------------5-6-6--6-5-|
|E|-----------------------------------|---------||E|-----------------------------------|---------|
A|-----------------------------3--------------| |E|-----------------------------------|---------|

E|-------------------------1| E|-----------------------------------|--|
B|----------4p3--------------1---1----------3---------3-----3----|
G|------5-------5------3-------3--------5-----5---5-----5-----5--| |4x|
D|----5---5----------3---3------------5---5-----5---------5------|
A|--3--------------1| E|-----------------------------------|----------|
|E|-----------------------------------|----------------------------|

 
                                                               |2x|
B|-(12)~~~~~~~~~~~~~~~~~~~~~~~~~~~~~~~~~-----------| |----------------------------||-----------|
|E|-----------------------------------|--------------||----------------------------||-----------|
|E|-----------------------------------|--------------||----------------------------||-----------|
A|-9| E|-----------------------------------|------------||-3-----6----x-6-6\5-5-------||---6\------|
E|-9| E|-----------------------------------|------------||-3-----6----x-6-6\5-5-(5)---||---6\------|
E|-7| E|-----------------------------------|------------||-1-----4----x-4-4\3-3-(3)---||---4\------|
                                                                
|2x|            Riff principal  1                                       
|E|-----------------------------------|E|-----------------------------------|---------------------------|
|E|-----------------------------------|E|-----------------------------------|---------------------------|
|E|-----------------------------------|---------------------------------3---6-----2-------1^3--------|
A|-3-----3-----6-----6-----6\5-----5---5--5-5-------------3-----3-----3---6-----2-(2)-------2^3----|
E|-3-----3-----6-----6-----6\5-----5---5--5-5-------------1-----1-----1---4-----0-(0)-----------3~~|
E|-1-0-0-1-0-0-4-0-0-4-0-0-4\5-0-0-3-0-3--3-3--1-2-2-3----1-1-1-1-0-0-------2-2--------------------|
    x x   x x   x x   x x     x x   x         x x x x     x x   x x       x x                           


Guitarra 1
E|----------------------------------|
B|----------------------------------|
G|-\5---5/8-8---------8\7-----------| |4x|
D|-\5---5/8-8----8/9--8\7-(7)----\5-|
A|-\3---3/6-6----6/7--6\5-(5)----\3-|
E|----------------------------------|

Guitarra 2
E|------------------------------|
B|------------------------------|
G|-\9---9/12-----------12\10----|
D|-\9---9/12----12/14--12\10-10-| |2x|
A|-\7---7/9------9/12---9\8---8-|
E|------------------------------|

E|----------------------------(12)~~~~~~~~~~~~~~~~~~~~~~~~~~~~~~~~~~~~~~~~|
|E|-----------------------------------|E|-----------------------------------|--|
G|-\5| E|-----------------------------------|----------------------------------|
D|-\5| E|-----------------------------------|----------------------------------|
A|-\3| E|-----------------------------------|----------------------------------|
|E|-----------------------------------|E|-----------------------------------|--|
Gently, my mind escapes into the relaxing

world of pleasure, a pleasure that'll take
my mind off the reality of my life,
my past life... life as I know it now.



Repetir Riff principal 1

And whatever may come, it slowly
disappears to somewhere in the back
of my mind. It will remain there,
until I wish to retrieve it.


Riff principal 2 (abafado)
repita o primeiro compasso enquanto o vocalista canta
|E|-----------------------------------|--------------|--------------------|
|E|-----------------------------------|--------------|--------------------|
|E|-----------------------------------|--------------|-4-4-4-4---4-4-4-4--|
D|---------5-------4---------------5-------4-------|-4-4-4-4---4-4-4-4--|
A|---------5-------4-----4---------5-------4-----4-|-2-2-2-2---2-2-2-2--|
E|-0-0-0-0-3-0-0-0-2-0-0-2-0-0-0-0-3-0-0-0-2-0-0-2-|--------------------|



Yes, I will stay here for a while,
for I need the break. A break from the
pressures of life, and everything
that lays in the palm of life's hands.

Acompanhando a bateria: (abafado)
E|--------------------------------|
B|--------------------------------|
G|-----4-4-----4-4-----4-4-----4-4|
D|-----5-5-----5-5-----5-5-----5-5|
A|-----5-5-----5-5-----5-5-----5-5|
E|-0-0-3-3-0-0-3-3-0-0-3-3-0-0-3-3|

Riff principal 2


This mode is incredible. It's out of
this world. Too bad I must always leave it...
... but that's life. 
E|--------------------------------|
B|--------------------------------|
G|-----4-4-----4-4-----4-4-----4-4|
D|-----5-5-----5-5-----5-5-----5-5|
A|-----5-5-----5-5-----5-5-----5-5|
E|-0-0-3-3-0-0-3-3-0-0-3-3-0-0-3-3|

E|----------------------------------/|
Key                              /
/_ slide down      p_ pull of   /    
\_ slide up        h_ hammer on \
~_ vibrato         ^_ bend       \
x_ palm-mute       ()_ ghost note \
E|-----------------------------------| E|-----------------------------------|----|

E|-----------------------------------| E|-----------------------------------|----|



Clipes

Cifra Club Pro

Aproveite o Cifra Club com benefícios exclusivos e sem anúncios
7 dias grátis
Cifra Club Pro
Aproveite o Cifra Club com benefícios exclusivos e sem anúncios
7 dias grátis