busca

Gently

Slipknot

Tom: A
Por César Augusto Calinçani Pereira
-----------------------------------
Afinação 1/2 abaixo

 INTRO                                                  

|-------------------------------------------------||--------3---------5p0------5----------------|
|----------4p3------------3-----------------------||--3h4-----4----------5---5---5--------------|
|------5-------5-------5-----5---5-----4-5-5--5-4-||------5-----5-----(7)----7-------4-5-5--5-4-|
|----5---5-------5---5---5-----5-------5-6-6--6-5-||-------(5)----5------------------5-6-6--6-5-|
|--3---------------3------------------------------||--------------------------------------------|
|----------------------------------3--------------||--------------------------------------------|

|--------------------------------------------||--------3---------5-0h5p0----5----------------|
|--------4p3----------3----------------------||--3h4-----4----------------5---5--------------|
|----5-------5----5-----5---5----4-5-5--5-4--||------5-----5-------(7)--7---------4-5-5--5-4-|
|--5---5--------5---5-----5------5-6-6--6-5--||-------(5)----5--------------------5-6-6--6-5-|
|--------------------------------------------||----------------------------------------------|
|-----------------------------3--------------||----------------------------------------------|

Agora entra a bateria e etc...

|--------------------------------------------||--------3---------5p0------5----------------|
|--------4p3----------3----------------------||--3h4-----4----------5---5---5--------------|
|----5------5-----5-----5---5----4-5-5--5-4--||------5-----5-----(7)--7---------4-5-5--5-4-|  |2x|
|--5---5--------5---5-----5------5-6-6--6-5--||-------(5)----5------------------5-6-6--6-5-|
|--------------------------------------------||--------------------------------------------|
|-----------------------------3--------------||--------------------------------------------|

|-------------------------1-------------------------------------|
|----------4p3--------------1---1----------3---------3-----3----|  
|------5-------5------3-------3--------5-----5---5-----5-----5--|   |4x|
|----5---5----------3---3------------5---5-----5---------5------|   
|--3--------------1---------------------------------------------|  
|---------------------------------------------------------------|
 
                                                               |2x|
|-(12)~~~~~~~~~~~~~~~~~~~~~~~~~~~~~~~~~-----------||----------------------------||-----------|
|-------------------------------------------------||----------------------------||-----------|
|-------------------------------------------------||----------------------------||-----------|
|-9-----------------------------------------------||-3-----6----x-6-6\5-5-------||---6\------| 
|-9-----------------------------------------------||-3-----6----x-6-6\5-5-(5)---||---6\------|
|-7-----------------------------------------------||-1-----4----x-4-4\3-3-(3)---||---4\------|
                                                                
|2x|            Riff principal  1                                       
|-------------------------------------------------------------------------------------------------|
|-------------------------------------------------------------------------------------------------|
|--------------------------------------------------------------------3---6-----2-------1^3--------|
|-3-----3-----6-----6-----6\5-----5---5--5-5-------------3-----3-----3---6-----2-(2)-------2^3----|
|-3-----3-----6-----6-----6\5-----5---5--5-5-------------1-----1-----1---4-----0-(0)-----------3~~|
|-1-0-0-1-0-0-4-0-0-4-0-0-4\5-0-0-3-0-3--3-3--1-2-2-3----1-1-1-1-0-0-------2-2--------------------|
    x x   x x   x x   x x     x x   x         x x x x     x x   x x       x x                           

Guitarra 1
|----------------------------------|
|----------------------------------| 
|-\5---5/8-8---------8\7-----------|    |4x|
|-\5---5/8-8----8/9--8\7-(7)----\5-|  
|-\3---3/6-6----6/7--6\5-(5)----\3-| 
|----------------------------------|

Guitarra 2
|------------------------------|
|------------------------------|
|-\9---9/12-----------12\10----|
|-\9---9/12----12/14--12\10-10-|    |2x|
|-\7---7/9------9/12---9\8---8-|
|------------------------------|


|----------------------------(12)~~~~~~~~~~~~~~~~~~~~~~~~~~~~~~~~~~~~~~~~|
|------------------------------------------------------------------------|
|-\5---------------------------------------------------------------------|
|-\5---------------------------------------------------------------------|
|-\3---------------------------------------------------------------------|
|------------------------------------------------------------------------|
Gently, my mind escapes into the relaxing
world of pleasure, a pleasure that'll take
my mind off the reality of my life,
my past life... life as I know it now.



Repetir Riff principal 1

And whatever may come, it slowly
disappears to somewhere in the back
of my mind. It will remain there,
until I wish to retrieve it.


Riff principal 2 (abafado)
repita o primeiro compasso enquanto o vocalista canta
|-------------------------------------------------|--------------------|
|-------------------------------------------------|--------------------|
|-------------------------------------------------|-4-4-4-4---4-4-4-4--|
|---------5-------4---------------5-------4-------|-4-4-4-4---4-4-4-4--|
|---------5-------4-----4---------5-------4-----4-|-2-2-2-2---2-2-2-2--|
|-0-0-0-0-3-0-0-0-2-0-0-2-0-0-0-0-3-0-0-0-2-0-0-2-|--------------------|



Yes, I will stay here for a while,
for I need the break. A break from the
pressures of life, and everything
that lays in the palm of life's hands.

aconpanhando a bateria: (abafado)
|--------------------------------|
|--------------------------------|
|-----4-4-----4-4-----4-4-----4-4|
|-----5-5-----5-5-----5-5-----5-5|
|-----5-5-----5-5-----5-5-----5-5|
|-0-0-3-3-0-0-3-3-0-0-3-3-0-0-3-3|

Riff principal 2


This mode is incredible. It's out of
this world. Too bad I must always leave it...
... but that's life. 
|--------------------------------|
|--------------------------------|
|-----4-4-----4-4-----4-4-----4-4|
|-----5-5-----5-5-----5-5-----5-5|
|-----5-5-----5-5-----5-5-----5-5|
|-0-0-3-3-0-0-3-3-0-0-3-3-0-0-3-3|


fim...

----------------------------------/ 
Key                              /
/_ slide down      p_ pull of   /    
\_ slide up        h_ hammer on \
~_ vibrato         ^_ bend       \
x_ palm-mute       ()_ ghost note \
--------------------------------------------------------------------------|

--------------------------------------------------------------------------|

Clipes