Gently

Slipknot

E
123
022100
Tom: G
#1t1##1t2#E|-----------------------------------|#/1t2##/1t1#
Afinação 1/2 abaixo

 INTRO                                                  

#2t1#|E|-----------------------------------|--------------||--------3---------5p0------5----------------|
#2t2#E|----------4p3------------3-----------------------| |--3h4-----4----------5---5---5--------------|
B|------5-------5-------5-----5---5-----4-5-5--5-4-| |------5-----5-----(7)----7-------4-5-5--5-4-|
G|----5---5-------5---5---5-----5-------5-6-6--6-5-| |-------(5)----5------------------5-6-6--6-5-|
D|--3---------------3------------------------------| |E|-----------------------------------|---------|
A|----------------------------------3--------------| |E|-----------------------------------|---------|#/2t2##/2t1#

#3t1#|E|-----------------------------------|---------||--------3---------5-0h5p0----5----------------|
#3t2#E|--------4p3----------3----------------------| |--3h4-----4----------------5---5--------------|
B|----5-------5----5-----5---5----4-5-5--5-4--| |------5-----5-------(7)--7---------4-5-5--5-4-|
G|--5---5--------5---5-----5------5-6-6--6-5--| |-------(5)----5--------------------5-6-6--6-5-|
|E|-----------------------------------|---------||E|-----------------------------------|-----------|
A|-----------------------------3--------------| |E|-----------------------------------|-----------|#/3t2##/3t1#


#4t1#|E|-----------------------------------|---------||--------3---------5p0------5----------------|
#4t2#E|--------4p3----------3----------------------| |--3h4-----4----------5---5---5--------------|
B|----5------5-----5-----5---5----4-5-5--5-4--| |------5-----5-----(7)--7---------4-5-5--5-4-|  |2x|
G|--5---5--------5---5-----5------5-6-6--6-5--| |-------(5)----5------------------5-6-6--6-5-|
|E|-----------------------------------|---------||E|-----------------------------------|---------|
A|-----------------------------3--------------| |E|-----------------------------------|---------|#/4t2##/4t1#

#5t1##5t2#E|-------------------------1| E|-----------------------------------|--|
B|----------4p3--------------1---1----------3---------3-----3----|
G|------5-------5------3-------3--------5-----5---5-----5-----5--| |4x|
D|----5---5----------3---3------------5---5-----5---------5------|
A|--3--------------1| E|-----------------------------------|----------|
|E|-----------------------------------|----------------------------|#/5t2##/5t1#
 
#6t1##6t2#                                                               |2x|
B|-(12)~~~~~~~~~~~~~~~~~~~~~~~~~~~~~~~~~-----------| |----------------------------||-----------|
|E|-----------------------------------|--------------||----------------------------||-----------|
|E|-----------------------------------|--------------||----------------------------||-----------|
A|-9| E|-----------------------------------|------------||-3-----6----x-6-6\5-5-------||---6\------|
E|-9| E|-----------------------------------|------------||-3-----6----x-6-6\5-5-(5)---||---6\------|
E|-7| E|-----------------------------------|------------||-1-----4----x-4-4\3-3-(3)---||---4\------|#/6t2##/6t1#
                                                                
#7t1##7t2#|2x|            Riff principal  1                                       
|E|-----------------------------------|E|-----------------------------------|---------------------------|
|E|-----------------------------------|E|-----------------------------------|---------------------------|
|E|-----------------------------------|---------------------------------3---6-----2-------1^3--------|
A|-3-----3-----6-----6-----6\5-----5---5--5-5-------------3-----3-----3---6-----2-(2)-------2^3----|
E|-3-----3-----6-----6-----6\5-----5---5--5-5-------------1-----1-----1---4-----0-(0)-----------3~~|
E|-1-0-0-1-0-0-4-0-0-4-0-0-4\5-0-0-3-0-3--3-3--1-2-2-3----1-1-1-1-0-0-------2-2--------------------|
    x x   x x   x x   x x     x x   x         x x x x     x x   x x       x x                           #/7t2##/7t1#

#8t1#Guitarra 1
#8t2#E|----------------------------------|
B|----------------------------------|
G|-\5---5/8-8---------8\7-----------| |4x|
D|-\5---5/8-8----8/9--8\7-(7)----\5-|
A|-\3---3/6-6----6/7--6\5-(5)----\3-|
E|----------------------------------|#/8t2##/8t1#

#9t1#Guitarra 2
#9t2#E|------------------------------|
B|------------------------------|
G|-\9---9/12-----------12\10----|
D|-\9---9/12----12/14--12\10-10-| |2x|
A|-\7---7/9------9/12---9\8---8-|
E|------------------------------|#/9t2##/9t1#



#10t1##10t2#E|----------------------------(12)~~~~~~~~~~~~~~~~~~~~~~~~~~~~~~~~~~~~~~~~|
|E|-----------------------------------|E|-----------------------------------|--|
G|-\5| E|-----------------------------------|----------------------------------|
D|-\5| E|-----------------------------------|----------------------------------|
A|-\3| E|-----------------------------------|----------------------------------|
|E|-----------------------------------|E|-----------------------------------|--|#/10t2##/10t1#
Gently, my mind escapes into the relaxing
world of pleasure, a pleasure that'll take
my mind off the reality of my life,
my past life... life as I know it now.



Repetir Riff principal 1

And whatever may come, it slowly
disappears to somewhere in the back
of my mind. It will remain there,
until I wish to retrieve it.


Riff principal 2 (abafado)
repita o primeiro compasso enquanto o vocalista canta
#11t1##11t2#|E|-----------------------------------|--------------|--------------------|
|E|-----------------------------------|--------------|--------------------|
|E|-----------------------------------|--------------|-4-4-4-4---4-4-4-4--|
D|---------5-------4---------------5-------4-------|-4-4-4-4---4-4-4-4--|
A|---------5-------4-----4---------5-------4-----4-|-2-2-2-2---2-2-2-2--|
E|-0-0-0-0-3-0-0-0-2-0-0-2-0-0-0-0-3-0-0-0-2-0-0-2-|--------------------|#/11t2##/11t1#



Yes, I will stay here for a while,
for I need the break. A break from the
pressures of life, and everything
that lays in the palm of life's hands.

#12t1#Acompanhando a bateria: (abafado)
#12t2#E|--------------------------------|
B|--------------------------------|
G|-----4-4-----4-4-----4-4-----4-4|
D|-----5-5-----5-5-----5-5-----5-5|
A|-----5-5-----5-5-----5-5-----5-5|
E|-0-0-3-3-0-0-3-3-0-0-3-3-0-0-3-3|#/12t2##/12t1#

Riff principal 2


This mode is incredible. It's out of
this world. Too bad I must always leave it...
... but that's life. 
#13t1##13t2#E|--------------------------------|
B|--------------------------------|
G|-----4-4-----4-4-----4-4-----4-4|
D|-----5-5-----5-5-----5-5-----5-5|
A|-----5-5-----5-5-----5-5-----5-5|
E|-0-0-3-3-0-0-3-3-0-0-3-3-0-0-3-3|#/13t2##/13t1#

#14t1##14t2#E|----------------------------------/|#/14t2##/14t1#
Key                              /
/_ slide down      p_ pull of   /    
\_ slide up        h_ hammer on \
~_ vibrato         ^_ bend       \
x_ palm-mute       ()_ ghost note \
#15t1##15t2#E|-----------------------------------| E|-----------------------------------|----|#/15t2##/15t1#

#16t1##16t2#E|-----------------------------------| E|-----------------------------------|----|#/16t2##/16t1#




Composição: Colaboração e revisão: César Pereira