Get This

Slipknot

Tom: G
tuning: B F# B E G# C#

b = bend
r = release
h = hammer on
PM= palm mute

intro
part 1:
#1t1##1t2#C#|-------------------|
G#|-------------------|
E |-------------------|
B |-------------------|
F#|-------------------|
B |-0--1--4--0--1--4--|#/1t2##/1t1#

#2t1#part 2:
#2t2#C#|-----|
G#|-----|
E |-----|
B |-----|
F#|-0---|
B |-0---|#/2t2##/2t1#
     
#3t1#riff 1:
#3t2#C#|-------------------|
G#|-------------------|
E |-------------------|
B |-------------------|
F#|-0--1--4--0--1--4--|
B |-0--1--4--0--1--4--|#/3t2##/3t1#
     
#4t1#riff 2:
#4t2#C#|--------------------|
G#|--------------------|
E |--------------------|
B |-----------5--------|
F#|-3-4--4----3--2--0--|
B |-3-4--4-------2--0--|#/4t2##/4t1#
    
#5t1#riff 3:
#5t2#C#|---------------------------------------------------------|
G#|---------------------------------------------------------|
E |---------------------------------------------------------|
B |---------------------------------------------------------|
F#|---------------------------------------------------------|
B |-0-0-0-0-1-1-1-1-4-4-4-4-3-3-3-3-4-4-4-4-6-6-6-6-8-8-7-7-|#/5t2##/5t1#
   |____________________tremolo picking____________________|
    
#6t1#riff 4:
#6t2#C#|--------------------------------------------|
G#|--------------------------------------------|
E |--------------------------------------------|
B |--------------------------------------------|
F#|-0------------------0------------------0----|
B |-0------------------0------------------0----|#/6t2##/6t1#
    HATE! mother***er HATE! mother***er HATE!

#7t1#riff 5:
#7t2#C#|----------------------------------------------------------|
G#|----------------------------------------------------------|
E |----------------------------------------------------------|
B |----------------------------------------------------------|
F#|----------2h3-2h3-2h3-2h3-3h4-3h4-3h4-3h4-2h3-2h3-2h3-2h3-|
B |-4b----r--------------------------------------------------|#/7t2##/7t1#
      
#8t1#riff 6:
#8t2#C#|--------------|
G#|--------------|
E |--------------|
B |--------------|
F#|-0----0----0--|
B |-0----0----0--|#/8t2##/8t1#
   |_____PM_____|
    get this or die

outro
part 1:
#9t1##9t2#C#|--------------------|
G#|--------------------|
E |--------------------|
B |--------------------|
F#|-----------3--------|
B |-3-4--4-------2--0--|#/9t2##/9t1#
   |_tremolo picking_|

#10t1#part 2:
#10t2#C#|--------|
G#|--------|
E |--------|
B |--------|
F#|-3-4--4-|
B |-3-4--4-|#/10t2##/10t1#
Composição: Colaboração e revisão: