busca

Get This

Slipknot

Tom: E
tuning: B F# B E G# C#

b = bend
r = release
h = hammer on
PM= palm mute

intro
part 1:
C#|-------------------|
G#|-------------------|
E |-------------------|
B |-------------------|
F#|-------------------|
B |-0--1--4--0--1--4--|

part 2:
C#|-----|
G#|-----|
E |-----|
B |-----|
F#|-0---|
B |-0---|
     
riff 1:
C#|-------------------|
G#|-------------------|
E |-------------------|
B |-------------------|
F#|-0--1--4--0--1--4--|
B |-0--1--4--0--1--4--|
     
riff 2:
C#|--------------------|
G#|--------------------|
E |--------------------|
B |-----------5--------|
F#|-3-4--4----3--2--0--|
B |-3-4--4-------2--0--|
    
riff 3:
C#|---------------------------------------------------------|
G#|---------------------------------------------------------|
E |---------------------------------------------------------|
B |---------------------------------------------------------|
F#|---------------------------------------------------------|
B |-0-0-0-0-1-1-1-1-4-4-4-4-3-3-3-3-4-4-4-4-6-6-6-6-8-8-7-7-|
   |____________________tremolo picking____________________|
    
riff 4:
C#|--------------------------------------------|
G#|--------------------------------------------|
E |--------------------------------------------|
B |--------------------------------------------|
F#|-0------------------0------------------0----|
B |-0------------------0------------------0----|
    HATE! mother***er HATE! mother***er HATE!

riff 5:
C#|----------------------------------------------------------|
G#|----------------------------------------------------------|
E |----------------------------------------------------------|
B |----------------------------------------------------------|
F#|----------2h3-2h3-2h3-2h3-3h4-3h4-3h4-3h4-2h3-2h3-2h3-2h3-|
B |-4b----r--------------------------------------------------|
      
riff 6:
C#|--------------|
G#|--------------|
E |--------------|
B |--------------|
F#|-0----0----0--|
B |-0----0----0--|
   |_____PM_____|
    get this or die

outro
part 1:
C#|--------------------|
G#|--------------------|
E |--------------------|
B |--------------------|
F#|-----------3--------|
B |-3-4--4-------2--0--|
   |_tremolo picking_|

part 2:
C#|--------|
G#|--------|
E |--------|
B |--------|
F#|-3-4--4-|
B |-3-4--4-|

Clipes

Cifra Club Pro

Aproveite o Cifra Club com benefícios exclusivos e sem anúncios
7 dias grátis
Cifra Club Pro
Aproveite o Cifra Club com benefícios exclusivos e sem anúncios
7 dias grátis