Hooked Through The Mouth

Slipknot

Tom: G
Submitted By: Sqweeky
EMail: B*

Hidden Bonus Track (Only On Import CD "Iowa")

Wait About 5 Minutes after the song "Iowa" is over

Tune to B

#1t1#P.M.......................................           (P.M= Palm Mute)
#1t2#-----------------------------------------|
-----------------------------------------|
-----------------------------------------|
-----------------------------------------|
1-0-0-1-0-0-1-0-1-0-0-1-0-0-1-0----------|
1-0-0-1-0-0-1-0-1-0-0-1-0-0-1-0----------|#/1t2##/1t1#

#2t1#Riff 1
#2t2#-----------------------------------------------|
-----------------------------------------------|
-----------------------------------------------|
----------1-1-1-1--0-0-0-0--6-6-6-6--5-5-5-5---|
-----------------------------------------------|
-1-0-0-0---------------------------------------|#/2t2##/2t1#

#3t1##3t2#-----------------------------------------------------|
-----------------------------------------------------|
-----------------------------------------------------|
------------6-6-6-6--5-5-5-5---10-10-10-10--9-9-9-9--|
-----------------------------------------------------|
-2-1-1-1---------------------------------------------|#/3t2##/3t1#

Repeat Riff 1


#4t1#Riff 2
#4t2#----------------------------------------|
----------------------------------------|
----------------------------------------|
----------------------------------------|
----------------------------------------|
1-0-6-0--1-0-7-0--1-0-8-0--1-0-7-0------|#/4t2##/4t1#

Repeat Riff 2 four times

#5t1#Let Ring...
#5t2#-----------|
-----------|
-----------|
-0---------|
-0---------|
-0---------|#/5t2##/5t1#
Composição: Jay Weinberg / Mick Thomson / Sid Wilson / Alessandro Venturella / Allan Rock / Anders Colsefni / Chris Fehn / Corey Taylor / Craig Jones / James Root / Jim Root / Joey Jordison / Josh Brainard / M. Shawn Crahan / Mick Thomson / Paul Gray / Ritch Ronnan / Shawn Crahan / Sid Wilson / Slipknot / Slipknot feat Linkin ParkColaboração e revisão: