I am Hated

Slipknot

Tom: G
Slipknot
I am Hated 
Afinação drop b (B,F#,B,E,G#,C#)

#1t1#Intro
#1t2#C#|--------------------------|
G#|--------------------------|
E |--------------------------|
B |--0-0-0--5-6---0-0-0--5-6-|3x
F#|--0-0-0--5-6---0-0-0--5-6-|
B |--0-0-0--5-6---0-0-0--5-6-|
PM   - - -        - - -#/1t2##/1t1#

#2t1#Versos
#2t2#C#|------------------|
G#|------------------|
E |------------------|
B |-0-00-1-0-0-6-1---|
F#|-0-00-1-0-0-6-1---|
B |-0-00-1-0-0-6-1---|#/2t2##/2t1#
Pm  - -- - - - - -  


#3t1#Refrão
#3t2#C#|----------------|
G#|----------------|
E |----------------|
B |-00-6-1-000-6-1-|
F#|-00-6-1-000-6-1-|
B |-00-6-1-000-6-1-|#/3t2##/3t1#

#4t1#Ponte
#4t2#C#|----------------|
G#|----------------|
E |--7v--------7v--|
B |----------------|
F#|----------------|
B |----------------|#/4t2##/4t1#

repete versos
REpete refrão

#5t1#Ponte2
#5t2#C#|--------------3-|
G#|----------------|
E |--------------3-|
B |--0---3-6-0-----|
F#|--0---3-6-0-----|
B |--0---3-6-0-----|#/5t2##/5t1#

Repete intro
repete versos

REpete refrão
Composição: Colaboração e revisão: