I Am Hated

Slipknot

Tom: G
Drop-B Tuning

MAIN RIFF

#1t1##1t2#C#------------------------
G|------------------------
E|-------------------------
B|--0-0-0--5-6---0-0-0--5-6
F|-0-0-0--5-6---0-0-0--5-6
B|--0-0-0--5-6---0-0-0--5-6
PM - - - - - - - - - -#/1t2##/1t1#

VERSE

#2t1##2t2#C#--------------------
G|--------------------
E|---------------------
B|--2-0--6-0---2-0--6-0
F|-2-0--6-0---2-0--6-0
B|--2-0--6-0---2-0--6-0 #/2t2##/2t1#

CHORUS

#3t1##3t2#C#-------------
G|-------------
E|--------------
B|--1-0--6-0-6-0
F|-1-0--6-0-6-0
B|--1-0--6-0-6-0 #/3t2##/3t1#

INTERLUDE

#4t1##4t2#C#-------------3
G|--------------
E|---------------
B|--0---3-6-0----
F|-0---3-6-0---3
B|--0---3-6-0----#/4t2##/4t1#
Composição: Colaboração e revisão: