Interloper

Slipknot

Tom: G
Notes:
w - whole note
h - half note
q - quarter note
e - eighth note
s - sixteenth note

notes without lengths are grace notes

Rests:
W - whole rest
H - Half rest
Q - quarter rest
E - eighth rest
S - sixteenth rest

Articulations:
/ - slide up
\ - slide down
~ - vibrato

#1t1#intro riff 1:
#1t2#C#|--------------------|----------------------|
G#|--------------------|----------------------|
E |--------------------|----------------------|
B |--------------------|----------------------|
F#|--------------------|----------------------|
B |--0-1-0-1-0-1-0-1---|--0-1-0-1-0-1-0-1/8~--|#/1t2##/1t1#
s e s e s e s e Q s e s e s e s e q

#2t1##2t2#C#|--------------------|------------------------|
G#|--------------------|------------------------|
E |--------------------|------------------------|
B |--------------------|------------------------|
F#|--------------------|----------------0---3---|
B |--0-1-0-1-0-1-0-1---|--0-1-0-1-0-1---0---3---|#/2t2##/2t1#
| s e s e s e s e Q | s e s e s e+s e+s e+s |
| | |
#3t1##3t2#C#|--------------------|------------------------|
G#|--------------------|------------------------|
E |--------------------|------------------------|
B |--------------------|------------------------|
F#|--------------------|----------------0---3---|
B |--------------------|----------------0---3---|#/3t2##/3t1#
W H+E e+s e+s

intro riff 2:
1. - 4. 5.
#4t1##4t2#C#|--------------------|----------------------|----------------------|--------|
G#|--------------------|----------------------|----------------------|--------|
E |.-------------------|---------------------.|----------------------|--------|
B |.-------------------|---------------------.|----------------------|--------|
F#|--0-1-0-1-0-1-0-1---|--0-1-0-1-0-1-0-------|--0-1-0-1-0-1-0-------|--------|
B |--0-1-0-1-0-1-0-1---|--0-1-0-1-0-1-0-1/8~--|--0-1-0-1-0-1-0-1/8~--|--(8)~--|#/4t2##/4t1#
s e s e s e s e Q s e s e s e s e q s e s e s e s e q + w

#5t1#verse:
#5t2#C#|--19b20.5---19b20.5r19--|
G#|------------------------|
E |.----------------------.|
B |.----------------------.|
F#|------------------------|
B |------------------------|#/5t2##/5t1#
q+e E q q

#6t1#bridge:
#6t2#C#|-------------------------------------------|
G#|-------------------------------------------|
E |.------------------------------------------|
B |.------------------------------------------|
F#|--*----------------------------------------|
B |--8-8-8-8-8-8-8-8-8-8-8-8-8-8-8b8.5-8b8.5--|#/6t2##/6t1#
s s s s s s s s s s s s s s s s
*gradual bend across 2 bars

#7t1##7t2#C#|---------------------------------------------------------------------------------|
G#|---------------------------------------------------------------------------------|
E |--------------------------------------------------------------------------------.|
B |--------------------------------------------------------------------------------.|
F#|---------------------------------------------------------------------------------|
B |-8b9-8b9-8b9-8b9-8b9-8b9-8b9.5-8b9.5-8b10-8b10-8b10.5-8b10.5-8b11-8b11-8b11-8b11-|#/7t2##/7t1#
s s s s s s s s s s s s s s s s

#8t1#chorus riff 1:
#8t2#C#|----------------|
G#|----------------|
E |.--------------.|
B |.--------------.|
F#|--2---1-2-1-2---|
B |--2---1-2-1-2---|#/8t2##/8t1#
e Q q e s e+s

#9t1#chorus riff 2:
#9t2#C#|----------------|----------|
G#|----------------|----------|
E |.--------------.|----------|
B |.--------------.|----------|
F#|--2---1-2-1-2---|--2-------|
B |--2---1-2-1-2---|--2-------|#/9t2##/9t1#
q+e q e s e+s e H+Q+E

#10t1#chorus riff 3:
#10t2#C#|-------------------------|
G#|-------------------------|
E |.-----------------------.|
B |.-----------------------.|
F#|--2-2-2-1-2-2-2-2-1-1-1--|
B |--2-2-2-1-2-2-2-2-1-1-1--|#/10t2##/10t1#
s e s e s e s e s s e

#11t1#break:
#11t2#C#|------------------------|
G#|------------------------|
E |------------------------|
B |------------------------|
F#|--x-x-x-x-x-x-x-x-x-x\--|
B |--x-x-x-x-x-x-x-x-x-x\--|#/11t2##/11t1#
s e e s s e s s s q

#12t1##12t2#-> chorus riff 3#/12t2##/12t1#

#13t1##13t2#-> intro riff 2#/13t2##/13t1#

#14t1#end:
#14t2#C#|-----------------------------|
G#|-----------------------------|
E |-----------------------------|
B |-----------------------------|
F#|--x-x-x-x-x-x-x-x-x-4-3-2-1--|
B |--x-x-x-x-x-x-x-x-x-4-3-2-1--|#/14t2##/14t1#
s e e s s e s s s s s s s
Composição: Colaboração e revisão: