busca

Iowa (album)

Slipknot

1:(515)
2:People=Shit
3:Disasterpiece
4:My Plague
5:Everything Ends
6:The Heretic Anthem
7:Gently
8:Left Behind
9:The Shape
10:I Am Hated
11:Skin Ticket
12:New Abortion
13:Metabolic
14:IOWA

1:(515)

Don't know if this is right!
_________________________________________________________________________________

riff 1:

|---9-12-13-10----9-12-13-9----9-12-13-10----9-12-13-10-|
|-9-------------9------------9-------------9------------|
|-------------------------------------------------------|
|-------------------------------------------------------|

riff 2:

|---9-12-13-10-12----9-12-13-10-12----9-12-13-18-17----9-12-13-18-17-|
|-9----------------9----------------9----------------9---------------|
|--------------------------------------------------------------------|
|--------------------------------------------------------------------|

The order:
Riff 1
Riff 2  (x2)
Riff 1
Riff 2

2:People=Shit

D|-----------------------------------------|
A|-----------------------------------------|
E|-----------------------------------------|
A|5-4-0-0-3-2-0-0-5-4-0-0-3-2-0-0--0--0--0-|

D|----------------------------------------------------------------|
A|2-2-2-2-2-2-2-2-----------------2-2-2-2-2-2-2-2-----------------|
E|----------------3-3-3-3-3-3-3-3-----------------3-3-3-3-3-3-3-3-|
A|----------------------------------------------------------------|

D|----------------------------------------------------------------|
A|----------------------------------------------------------------|
E|----------------------------------------------------------------|
A|1-1-1-1-1-1-1-1-3-3-3-3-3-3-3-3-2-2-2-2-2-2-2-2-4-4-4-4-4-4-4-4-|

D|----------------------------------------------------------------|
A|2-2-2-2-2-2-2-2-----------------2-2-2-2-2-2-2-2-----------------|
E|----------------3-3-3-3-3-3-3-3-----------------3-3-3-3-3-3-3-3-|
A|----------------------------------------------------------------|

D|--------------------|
A|--------------------|
E|--------------------|
A|1--1--1--1 / 12 \ 1-|

D|------------------------------|
A|------------------------------|
E|------------------------------|
A|0-3-2-0-2-0---0-3-2-0-5-------|(bend)

D|------------------------------------------|
A|------------------------------------------|
E|------------------------------------------|
A|0-2-0-2---4---0-2-0-2---4---0-2-0-5-------|(bend)

D|----------------------|
A|2~~3~~------2~~3~~----|
E|-------3~2--------3~2-|
A|----------------------|

D|--------------------------------|
A|2~~3~~------2--2--2--2----------|
E|-------3~2--------------3~2(/12-| once at the end
A|--------------------------------|

D|--------------------------------|
A|--------------------------------|
E|--------------------------------|
A|0-2-0-1-0-1-0---0-2-1-0-5-------|(bend)

D|--------------------------------------------------|
A|--------------------------------------------------|
E|--------------------------------------------------|
A|1-1-1---1-1---1-1---1-1---1-1-1-1-1-1---1-1---1-1-|

D|--------------------------------|
A|--------------------------------|
E|--------------------------------|
A|0-2-0-1-0-1-0---0-2-1-0-5-------|(bend)

D|-----------------|
A|2~~3~~----2~~3~~-|
E|------3~2--------|
A|-----------------|

D|----------------|
A|----------------|
E|----------------|
A|8-8-0-9-0-0-5-5-|

D|----------------|
A|----------------|
E|----------------|
A|1-1-1-2-1-1-3-4-|

D|-------|
A|-------|
E|-------|
A|1~~~~~~

D|----------------|
A|----------------|
E|----------------|
A|8-8-0-9-0-0-5-5-|

D|-----------------------------------------|
A|-----------------------------------------|
E|-----------------------------------------|
A|5-4-0-0-3-2-0-0-5-4-0-0-3-2-0-0--0--0--0-|


3:Disasterpiece

INTRO (0:09)                        (0:36)                    (0:54)
G|-----------------------|-------------------------------|-------------|
D|-----------------------|-------------------------------|-------------|
A|-----------------------|-------------------------------|-------------|
B|--0-0-1--0-0-1--0-0-0--|--0-0-1-0-0-1-0-0-0H2-2R0-3H1--|--000-111-0--|
*12                              *8                             *1

VERSE (1:01)                                 (1:10)
G|-------------------------------|--------------------------------|
D|-------------------------------|--------------------------------|
A|-------------------------------|--------------------------------|
B|--0-0-0-1-1-1-0-2H1-0-3H1-4H1--|--0-0-0-1-1-1-0--2H1-0-3H1-4H1--|
*4                                        *4

CHORUS (1:18)                            (1:20)
G|-----------------|---------------------------------------------------|
D|-----------------|---------------------------------------------------|
A|-----------------|---------------------------------------------------|
B|--0-0-0-1-1-1-0--|--888888888888-111111111111-00000-11111-00000-210--|
*1                                *2

(1:27)                             (1:29)
G|-----------------|---------------------------------------------------|
D|-----------------|---------------------------------------------------|
A|-----------------|---------------------------------------------------|
B|--0-0-0-1-1-1-0--|--888888888888-111111111111-00000-11111-00000-210--|
*1                                 *2


VERSE (1:43)                                        (1:58)
G|-------------------------------------------|-----------------------------|
D|-------------------------------------------|-----------------------------|
A|-------------------------------------------|-----------------------------|
B|-(0/5-0/7\1)--0-0-0-1-1-1-0--2H1-0-3H1-4H1-|-0-0-0-1-1-1-0-2H1-0-3H1-4H1-|
*4                                                   *4

(2:06)
--------------------------------|
--------------------------------|
--------------------------------|
--1-1-1-2-2-2-1--2H1-0-3H1-4H1--|
4*

CHORUS (2:15 - 2:33)


BRIDGE (2:33)           (2:42)         (3:01)             (3:20)
G|------------|------------------|------------------|------------------|
D|------------|------------------|------------------|------------------|
A|------------|------------------|------------------|------------------|
B|--0-0-1-0-0-|-0-0-3-4--1-5-6-7-|-X-0-3-4--1-6-7-8-|-X-0-3-4--1-5-6-7-|
*4                    *8              *8                      *4

(3:32)                                          (3:46)
G|----------------------------------------|-----------------|
D|----------------------------------------|-----------------|
A|----------------------------------------|-----------------|
B|--7-12--7/9--12\9--11\7--9\5--7\3--5\1--|--0-0-0-3-3-3-2--|
*1                                              *8

(4:03)
------------------------------------|
------------------------------------|
------------------------------------|
--(5\0)-0-0-0-3-3-3-2--3-5-5-5-6-6--|
7*

OUTRO (4:19)                                (4:48)
G|------------------------------|------------------------------|
D|------------------------------|------------------------------|
A|------------------------------|------------------------------|
B|--(7-12\0)--X-0-3-4--1-6-7-8--|---(5/9\0)--0-0-3-4--1-5-6-7--|
*12                                                    *8

4:My Plague

Intro
D-------------    D---------------|
A-------------x8  A---------------|x4
E-------------    E---------------|
B-0000-guitar-    B-0-0-0-guitar--|

Verse
D-------------   Rest   D-------------|
A-------------x8 During A-------------|
E-------------   Drums  E-------------|
B-0-0-0-1---2-          B-0-0-0-1---2-|

Chorus
D-------------------------------------------------------------------|
A-------------------------------------------------------------------|x2
E-------------------------------------------------------------------|
B-0--5--7--10--22222222-55555555--0--5--7--10--33333333-66666666----|

2nd Verse
D-------------   D-------------|
A-------------x2 A-------------|
E-------------   E-------------|
B-0000-1---2--   B-0-0-0-1---2-|

Chorus x2

Bridge (no bass until 3rd bridge)

D----------------------------    D-------------------------------|
A----------------------------x2  A-------------------------------|x12
E----------------------------    E-------------------------------|
B--0-1-0-3-2--1-0--2-4-3-6-5-    B-0-1-0-3--6H5-3H4-0-1-5432-6H5-|

Chorus x4

Verse x8

Outro
D-----------------------     D---------|
A-----------------------x4   A---------|x4
E-----------------------     E---------|
B--0-0-0-1-0--0-1H2-2p1-     B-00000---|

5:Everything

Clipes