busca

Iowa

Slipknot

Tom: E
tuning: A D G C E A

/ = slide
b = bend

Riff 1:
A|------------------|
E|-2----------------|
C|------------------|
G|----2/4-----------|
D|------------------|
A|---------0---/2---|

Riff 2:
A|---------------------|
E|---------------------|
C|---------------------|
G|---------------------|
D|-4b------4-----4--4--|
A|-2b------2-----2--0--|

Riff 3:
A|---------------------|
E|---------------------|
C|---------------------|
G|---------------------|
D|-4b------4-----4--2--|
A|---------------------|

Clipes