Tom: G
tuning: A D G C E A

/ = slide
b = bend

#1t1#Riff 1:
#1t2#A|------------------|
E|-2----------------|
C|------------------|
G|----2/4-----------|
D|------------------|
A|---------0---/2---|#/1t2##/1t1#

#2t1#Riff 2:
#2t2#A|---------------------|
E|---------------------|
C|---------------------|
G|---------------------|
D|-4b------4-----4--4--|
A|-2b------2-----2--0--|#/2t2##/2t1#

#3t1#Riff 3:
#3t2#A|---------------------|
E|---------------------|
C|---------------------|
G|---------------------|
D|-4b------4-----4--2--|
A|---------------------|#/3t2##/3t1#
Composição: Colaboração e revisão: Bruno Bianchi