Keep away

Slipknot

Tom: G
Tuning: u can tune it how ever u wont to but I prefer to down tune the whole guitar 1 step 

#1t1#Riff a  |-------------------------------------------------------
#1t2#        |-------------------------------------------------------
        |-----0------------------0------------------------------
        |-------2-0------0-2-------0-2-----------2------2-------
        |-------------------------------------------------------
        |0------------3----------------------0------00----------#/1t2##/1t1#

#2t1#Riff b  |-------------------------------------------------------
#2t2#        |-------------------------------------------------------
        |-----0------------------0------------------------------
        |-------2-0------0-2-------0-2-----------2------4-------
        |-------------------------------------------------------
        |0------------3----------------------0------00----------#/2t2##/2t1#

#3t1#Riff c  |-------------------------------------------------------
#3t2#        |-------------------------------------------------------
        |-----0------------------0------------------------------
        |-------2-0------0-2-------0-2-----------2------0-------
        |-------------------------------------------------------
        |0------------3----------------------0------00----------#/3t2##/3t1#

#4t1#Riff d  |-------------------------------------------------------
#4t2#        |-------------------------------------------------------
        |-----0------------------0------------------------0-----
        |-------2-0------0-2-------0-2-----------2----------4---
        |-------------------------------------------------------
        |0------------3----------------------0------00----------#/4t2##/4t1#


Song goes                   
Riff a 
Riff b
Riff c
Riff a
Riff b
Riff a
Riff d
Riff a

And then it goes
Riff a 
Riff b
Riff c
Riff a
Riff b
Riff a
Riff d
Composição: Colaboração e revisão: