Killpop

Slipknot

Tom: G
Afinação Drop B
 
Guitarra parte (1) 

#1t1##1t2#C#|----------------------------------------------------------|
G#|-13-13-13-13-13-13-13-13-12-12-12-12-12-12-12-12----------|
E|-----------------------------------------------------------|X2
B|-----------------------------------------------------------|
F#|----------------------------------------------------------|
B|-----------------------------------------------------------|#/1t2##/1t1#


#2t1##2t2#C#|------------------------------------------------------|
G#|------------------------------------------------------| 
E|-7-7-7-7-7-7-7-7-8-8-8-8-8-8-8-8-----------------------|X4
B|-------------------------------------------------------|
F#|------------------------------------------------------|
B|-------------------------------------------------------|#/2t2##/2t1#

#3t1##3t2#C#|----------------------------------------------------------|
G#|-13-13-13-13-13-13-13-13-12-12-12-12-12-12-12-12----------|
E|-----------------------------------------------------------|X2
B|-----------------------------------------------------------|
F#|----------------------------------------------------------|
B|-----------------------------------------------------------|#/3t2##/3t1#

#4t1##4t2#C#|------------------------------------------------------|
G#|------------------------------------------------------| 
E|-7-7-7-7-7-7-7-7-8-8-8-8-8-8-8-8-----------------------|X4
B|-------------------------------------------------------|
F#|------------------------------------------------------|
B|-------------------------------------------------------|#/4t2##/4t1#



Guitarra parte (2) palm mute

#5t1##5t2#C#|-----------------------------------------------------------------------------------|
G#|-----------------------------------------------------------------------------------|
E|------------------------------------------------------------------------------------|
B|------------------------------------------------------------------------------------|
F#|-----------------------------------------------------------------------------------|
B|-0-2~--5-4~--0-0-2-2-2-0-0-2-2-2-0-0-2-2-2-0-0-2-2-2-0-0-0-0-0-0-0-0-0-0-5-4~--0-4~-|#/5t2##/5t1#

               * * * * * * * * * * * * * * * * * * * * * * * * 

#6t1##6t2#C#|-----------------------------------------------------------------------|
G#|-----------------------------------------------------------------------|
E|------------------------------------------------------------------------|
B|------------------------------------------------------------------------|
F#|-----------------------------------------------------------------------|
B|-0-0-2-2-2-0-0-2-2-2-0-0-2-2-2-0-0-2-2-2-0-0-0-0-0-0-0-0-0-0-8-7~--0-4~-|#/6t2##/6t1#

   * * * * * * * * * * * * * * * * * * * * * * * * 

guitarra parte (3)

#7t1##7t2#C#|------------------------------------------------------------|
G#|------------------------------------------------------------|
E|-------------------------------------------------------------|
B|-------------------------------------------------------------|
F#|------------------------------------------------------------|
B|2-2-2-2-2-2-2-2-2-2-2-2-2-2-5-5-5-5-4-4-4-4-4-4-4-4-4-4-4-4--|#/7t2##/7t1#


#8t1##8t2#C#|------------------------------------------------------------------------|
G#|------------------------------------------------------------------------|
E|-------------------------------------------------------------------------|
B|-3-3-3-3-2-2-2-2-2-2-2-2-2-2-2-2-3-3-3-3-2-2-2-2-2-2-2-2-2-2-2-2---------|
F#|------------------------------------------------------------------------|
B|-----------------------------------------------------------------/-\-----|#/8t2##/8t1#


#9t1##9t2#C#|------------------------------------------------------------|
G#|------------------------------------------------------------|
E|-------------------------------------------------------------|
B|-------------------------------------------------------------|
F#|------------------------------------------------------------|
B|2-2-2-2-2-2-2-2-2-2-2-2-2-2-5-5-5-5-7-7-4-4-4-4-4-4-4-4-4-4--|#/9t2##/9t1#


#10t1##10t2#C#|--------------------------------------------------------------|
G#|--------------------------------------------------------------|
E|---------------------------------------------------------------|
B|-3-3-3-3-2-2-2-2-2-2-2-2-2-2-2-2-10-10-10-10-9-9-9-9-9-9-9-9---|
F#|--------------------------------------------------------------|
B|---------------------------------------------------------------|#/10t2##/10t1#


#11t1##11t2#C#|---------------------------------------|
G#|---------------------------------------|
E|----------------------------------------|
B|-9h10p9----9----------------------------|
F#|-------12---12-10-9-10--7/-------------|
B|----------------------------------------|#/11t2##/11t1#

Palm mute

#12t1##12t2#C#|---------------------------------------|
G#|---------------------------------------|
E|----------------------------------------|
B|-4-4-4-4-5-5-5-5-4-4-4-4-5-5-5-5--------|X2
F#|x-x-x-x-x-x-x-x-x-x-x-x-x-x-x-x--------|
B|-4-4-4-4-5-5-5-5-4-4-4-4-5-5-5-5--------|#/12t2##/12t1#

#13t1##13t2#C#|---------------------------------------|
G#|-12brbrbrbr----------------------------|
E|----------------------------------------|X2
B|----------------------------------------|
F#|---------------------------------------|
B|----------------------------------------|#/13t2##/13t1#

#14t1##14t2#C#|------------------------------------------------------|
G#|------------------------------------------------------| 
E|-7-7-7-7-7-7-7-7-8-8-8-8-8-8-8-8-----------------------|X4
B|-------------------------------------------------------|
F#|------------------------------------------------------|
B|-------------------------------------------------------|#/14t2##/14t1#


Guitarra parte (5)

#15t1##15t2#C#|-----------------------------------------------------------------------------------|
G#|-----------------------------------------------------------------------------------|
E|------------------------------------------------------------------------------------|
B|------------------------------------------------------------------------------------|
F#|-----------------------------------------------------------------------------------|
B|-8-7~--0-4~--0-0-2-2-2-0-0-2-2-2-0-0-2-2-2-0-0-2-2-2-0-0-0-0-0-0-0-0-0-0-5-4~--0-4~-|#/15t2##/15t1#

               * * * * * * * * * * * * * * * * * * * * * * * * 

#16t1##16t2#C#|-----------------------------------------------------------------------|
G#|-----------------------------------------------------------------------|
E|------------------------------------------------------------------------|
B|------------------------------------------------------------------------|
F#|-----------------------------------------------------------------------|
B|-0-0-2-2-2-0-0-2-2-2-0-0-2-2-2-0-0-2-2-2-0-0-0-0-0-0-0-0-0-0-8-7~--0-4~-|#/16t2##/16t1#

   * * * * * * * * * * * * * * * * * * * * * * * * 

Guitarra parte (6)

#17t1##17t2#C#|-------------------------------------------------------------|
G#|-------------------------------------------------------------|
E|-------------------------------------------------------------|
B|-------------------------------------------------------------|
F#|-------------------------------------------------------------|
B|2-2-2-2-2-2-2-2-2-2-2-2-2-2-5-5-5-5-4-4-4-4-4-4-4-4-4-4-4-4--|#/17t2##/17t1#


#18t1##18t2#C#|------------------------------------------------------------------------|
G#|------------------------------------------------------------------------|
E|-------------------------------------------------------------------------|
B|-3-3-3-3-2-2-2-2-2-2-2-2-2-2-2-2-3-3-3-3-2-2-2-2-2-2-2-2-2-2-2-2---------|
F#|------------------------------------------------------------------------|
B|-----------------------------------------------------------------/-\-----|#/18t2##/18t1#


#19t1##19t2#C#|------------------------------------------------------------|
G#|------------------------------------------------------------|
E|-------------------------------------------------------------|
B|-------------------------------------------------------------|
F#|---------------------------5-5-5-5-7-7-4-4-4-4-4-4-4-4-4-4--|
B|2-2-2-2-2-2-2-2-2-2-2-2-2-2----------------------------------|#/19t2##/19t1#


#20t1##20t2#C#|------------------------------------------------------------------------------------|
G#|------------------------------------------------------------------------------------|
E|-------------------------------------------------------------------------------------|
B|-3-3-3-3-2-2-2-2-2-2-2-2-2-2-2-2-10-10-10-10-9-9-9p10-9p10-9p10-9p10-9p10-9p10-9~----|
F#|------------------------------------------------------------------------------------|
B|-------------------------------------------------------------------------------------|#/20t2##/20t1#


Solo parte (1)

#21t1##21t2#C#|---------------------------------------------------------|
G#|---/20(8x)--19(8x)--22(8x)--20(8x)--24(8x)--20(8x)--17~/-|
E|----------------------------------------------------------|
B|----------------------------------------------------------|
F#|---------------------------------------------------------|
B|----------------------------------------------------------|#/21t2##/21t1#

Solo parte (2)

#22t1##22t2#C#|-14h15h17p15p14-------------------------------------------|
G#|----------------17p15p13-12h13h15p13p12-------------------|
E|----------------------------------------14p12p11----------|
B|----------------------------------------------------------|
F#|----------------------------------------------------------|
B|----------------------------------------------------------|#/22t2##/22t1#

#23t1##23t2#C#|----------------------------------------------------------|
G#|----------------------------------------------------------|
E|-9h11h12p11p9---------------------------------------------|
B|--------------12p10p9-7h9h10p9p7--------------------------|
F#|---------------------------------10p9p7-------------------|
B|----------------------------------------------------------|#/23t2##/23t1#


Solo parte (3)

#24t1##24t2#C#|--------------------------------------------------------------------------------|
G#|-12h13p12h13p12/----15h17p15/13h15p13/12h13p12/10--12p10/8h10p8/7---------------|
E|---------------------------------------------------------------------------------|
B|---------------------------------------------------------------------------------|
F#|--------------------------------------------------------------------------------|
B|---------------------------------------------------------------------------------|#/24t2##/24t1#

#25t1##25t2#C#|----------------------------------|
G#|-12---10--------------------------|
E|-----9----9-12-9-11-9-9~-----------|
B|-----------------------------------|
F#|----------------------------------|
B|-----------------------------------|#/25t2##/25t1#


#26t1#Final
#26t2#C#|------------------------------------------------------------------|
G#|------------------------------------------------------------------|
E|-------------------------------------------------------------------|
B|-----------------4-5-----------------------------4-5---------------|
F#|-2-0-2-4-5-4-2-4-2/3-2-4-5-4-2-4-2-0-2-4-5-4-2-4-2/3-2-4-5-4-2-4--|
B|-2-0-2-4-5-4-2-4-----2-4-5-4-2-4-2-0-2-4-5-4-2-4-----2-4-5-4-2-4---|#/26t2##/26t1#


#27t1##27t2#C#|--------------------------------------------------|
G#|--------------------------------------------------|
E|---------------------------------------------------|
B|-----------------4-5-------------------------------|
F#|-2-0-2-4-5-4-2-4-2/3-2-4-5-4-2-4-2-0-2-4-5-4-2-4--|
B|-2-0-2-4-5-4-2-4-----2-4-5-4-2-4-2-0-2-4-5-4-2-4---|#/27t2##/27t1#
Composição: SlipknotColaboração e revisão: Antonio ConstantinoNeto Alves