Left Behind

Slipknot

E
123
022100
Tom: G
afinações       Gtr I  (B F# B E G# C#) - 'Gtr I'
                Gtr II (B F# B E G# C#) - 'Gtr. II'

 Intro
  Moderately Fast
 4/4
  Gtr I

#1t1##1t2#|-----------------|-----------------|-----------------|
|-----------------|-----------------|-----------------|
|-----------------|-----------------|-----------------|
|-----------------|-----------------|-----------------|
|-1p0-0-------1s6-|-6-----1---------|-------1-1---1s6-|
|-------2-2p1-----|---0-0---2-1-1s6-|-6-0-0-----2-----|#/1t2##/1t1#


  Gtr I

#2t1##2t2#|-----------------|-----------------|-----------------|
|-----------------|-----------------|-----------------|
|-----------------|-----------------|-----------------|
|-----------------|-----------------|-----------------|
|-6-----1---------|-------1-1---1s6-|-6-----1---------|
|---0-0---2-1-1s6-|-6-0-0-----2-----|---0-0---2-1-1s6-|
|#/2t2##/2t1#
| Gtr II
|
#3t1##3t2#|-----------------|-----------------|-----------------|
|-----------------|-----------------|-----------------|
|-----------------|-----------------|-----------------|
|---------x-x-----|-----------------|-----------------|
|---------x-x-----|-------1-1---1s6-|-6-----1---------|
|-------------1s6-|-6-0-0-----2-----|---0-0---2-1-1s6-|#/3t2##/3t1#


  Gtrs I, II

#4t1##4t2#|-----------------|-----------------|-----------------|
|-----------------|-----------------|-----------------|
|-----------------|-----------------|-----------------|
|-----------------|-----------------|-----------------|
|-------1-1---1s6-|-6-----1---------|-------1-1---1s6-|
|-6-0-0-----2-----|---0-0---2-1-1s6-|-6-0-0-----2-----|#/4t2##/4t1#


  Gtr I

#5t1##5t2#|-----------------|-----------------|-----------------------------||
|-----------------|-----------------|-----------------------------||
|-----------------|-----------------|-8-8-8-8----8-----8----------||
|-----------------|-----------------|-----------------------------||
|-6-----1---------|-------1-1---1s6-|-6-6-6-6----6-----6----------||
|---0-0---2-1-1s6-|-6-0-0-----2-----|------------------------13\--||
|#/5t2##/5t1#
| Gtr II
|
#6t1##6t2#|-----------------|-----------------|-----------------------------||
|-----------------|-----------------|-----------------------------||
|-----------------|-----------------|-8-8-8-8pb9-8pb10-8pb10------||
|-----------------|-----------------|-----------------------------||
|-6-----1---------|-------1-1---1s6-|-----------------------------||
|---0-0---2-1-1s6-|-6-0-0-----2-----|------------------------13\--||#/6t2##/6t1#

 verse

#7t1##7t2#|-----------------|-----------------|-----------------|-----------------|
|-----------------|-----------------|-----------------|-----------------|
|---------------8-|-8-7-7-----------|---------------8-|-8-7-7-----------|
|-----------------|-----------------|-----------------|-----------------|
|-1-0-0-6-6-0-0-6-|-6-5-5-6-6-0-0-1-|-1-0-0-6-6-0-0-6-|-6-5-5-3-3-3-3-1-|
|-1-0-0-6-6-0-0---|-------6-6-0-0-1-|-1-0-0-6-6-0-0---|-------3-3-3-3-1-|
|#/7t2##/7t1#
|

#8t1##8t2#|-----------------|-----------------|-----------------|-----------------|
|-----------------|-----------------|-----------------|-----------------|
|-----------------|-----------------|-----------------|-----------------|
|-----------------|-----------------|-----------------|-----------------|
|-1-0-0-6-6-0-0-1-|-1-0-0-6-6-0-0-1-|-1-0-0-6-6-0-0-1-|-1-0-0-3-3-3-3-1-|
|-1-0-0-6-6-0-0-1-|-1-0-0-6-6-0-0-1-|-1-0-0-6-6-0-0-1-|-1-0-0-3-3-3-3-1-|#/8t2##/8t1#


#9t1##9t2#|-----------------|-----------------|-----------------|-----------------||
|-----------------|-----------------|-----------------|-----------------||
|---------------8-|-8-7-7-----------|---------------8-|-8-7-7-----------||
|-----------------|-----------------|-----------------|-----------------||
|-1-0-0-6-6-0-0-6-|-6-5-5-6-6-0-0-1-|-1-0-0-6-6-0-0-6-|-6-5-5-3-3-3-3-1-||
|-1-0-0-6-6-0-0---|-------6-6-0-0-1-|-1-0-0-6-6-0-0---|-------3-3-3-3-1-||
|#/9t2##/9t1#
#10t1#| E E E E E E E E   E E E E E E E E   E E E E E E E E   E E E E E E E E
#10t2#|-----------------|-----------------|-----------------|-----------------||
|-----------------|-----------------|-----------------|-----------------||
|-----------------|-----------------|-----------------|-----------------||
|-----------------|-----------------|-----------------|-----------------||
|-1-0-0-6-6-0-0-1-|-1-0-0-6-6-0-0-1-|-1-0-0-6-6-0-0-1-|-1-0-0-3-3-3-3-1-||
|-1-0-0-6-6-0-0-1-|-1-0-0-6-6-0-0-1-|-1-0-0-6-6-0-0-1-|-1-0-0-3-3-3-3-1-||#/10t2##/10t1#


   Verse

||------------------|-----------------|-----------------|------------------|
||o-----------------|-----------------|-----------------|------------------|
||----------------8-|-8-7-7-----------|---------------8-|-8-7-7------------|
||------------------|-----------------|-----------------|------------------|
||o-1-0-0-6-6-0-0-6-|-6-5-5-6-6-0-0-1-|-1-0-0-6-6-0-0-6-|-6-5-5-3-3-3-3-1--|
||--1-0-0-6-6-0-0---|-------6-6-0-0-1-|-1-0-0-6-6-0-0---|-------3-3-3-3-1--|
|
|
||------------------|-----------------|-----------------|------------------|
||o-----------------|-----------------|-----------------|------------------|
||------------------|-----------------|-----------------|------------------|
||------------------|-----------------|-----------------|------------------|
||o-1-0-0-6-6-0-0-1-|-1-0-0-6-6-0-0-1-|-1-0-0-6-6-0-0-1-|-1-0-0-3-3-3-3-1--|
||--1-0-0-6-6-0-0-1-|-1-0-0-6-6-0-0-1-|-1-0-0-6-6-0-0-1-|-1-0-0-3-3-3-3-1--|


#11t1##11t2#|-----------------|-----------------|-----------------|-----------------||
|-----------------|-----------------|-----------------|-----------------||
|---------------8-|-8-7-7-----------|---------------8-|-8-7-7-----------||
|-----------------|-----------------|-----------------|-----------------||
|-1-0-0-6-6-0-0-6-|-6-5-5-6-6-0-0-1-|-1-0-0-6-6-0-0-6-|-6-5-5-3-3-3-3---||
|-1-0-0-6-6-0-0---|-------6-6-0-0-1-|-1-0-0-6-6-0-0---|-------3-3-3-3-0-||
|#/11t2##/11t1#
#12t1#|
#12t2#|-----------------|-----------------|-----------------|-----------------||
|-----------------|-----------------|-----------------|-----------------||
|-----------------|-----------------|-----------------|-----------------||
|-----------------|-----------------|-----------------|-----------------||
|-1-0-0-6-6-0-0-1-|-1-0-0-6-6-0-0-1-|-1-0-0-6-6-0-0-1-|-1-0-0-3-3-3-3---||
|-1-0-0-6-6-0-0-1-|-1-0-0-6-6-0-0-1-|-1-0-0-6-6-0-0-1-|-1-0-0-3-3-3-3-0-||#/12t2##/12t1#


 Chorus

#13t1##13t2#|----------------|----------------|-------------------|-----------------------|
|----------------|----------------|-------------------|-----10-10-10-10-10/---|
|-3-3---8-8--3-3-|---8-8--3---8---|-----7-7-(7)---7---|-----------------------|
|----------------|----------------|-6-6---------6---6-|------7--7--7--7--7/---|
|-1-1---6-6--1-1-|---6-6--1---6---|-------------------|-6-6-------------------|
|----------------|----------------|-------------------|-----------------------|
|#/13t2##/13t1#
#14t1#|
#14t2#|----------------|----------------|-------------------|-----------------------|
|----------------|----------------|-------------------|-----------------------|
|----------------|----------------|-------------------|-----------------------|
|----------------|----------------|-------------------|-----------------------|
|-1--------------|----------------|-6-6-6-6-(6)-6-6-1-|-1-1--1--1--1--1--1--1-|
|----------------|-----------13\--|-6-6-6-6-(6)-6-6-1-|-1-1--1--1--1--1--1--1-|#/14t2##/14t1#


#15t1##15t2#|-----------------|----------------|-------------------|-----------------------|
|-----------------|----------------|-------------------|-----10-10-10-10-10/---|
|-3-3---8-8---3-3-|-----8-8--3--8--|-----7-7-(7)---7---|-----------------------|
|-----------------|----------------|-6-6---------6---6-|------7--7--7--7--7/---|
|-1-1---6-6---1-1-|-----6-6--1--6--|-------------------|-6-6-------------------|
|-----------------|----------------|-------------------|-----------------------|
|#/15t2##/15t1#
#16t1#|
#16t2#|-----------------|----------------|-------------------|-----------------------|
|-----------------|----------------|-------------------|-----------------------|
|-----------------|----------------|-------------------|-----------------------|
|-3-3---8-8s3-3-3-|-(3)-8-8--3--8--|-------------------|-----------------------|
|-1-1---6-6s1-1-1-|-(1)-6-6--1--6--|-6-6-6-6--6--6-6-6-|-1-1--1--1--1--1--1--1-|
|-----------------|----------------|-6-6-6-6--6--6-6-6-|-1-1--1--1--1--1--1--1-|#/16t2##/16t1#


#17t1##17t2#|-----------------|----------------|-------------------|-----------------------|
|-----------------|----------------|-------------------|-----10-10-10-10-10/---|
|-3-3---8-8---3-3-|-----8-8--3--8--|-----7-7-(7)---7---|-----------------------|
|-----------------|----------------|-6-6---------6---6-|------7--7--7--7--7/---|
|-1-1---6-6---1-1-|-----6-6--1--6--|-------------------|-6-6-------------------|
|-----------------|----------------|-------------------|-----------------------|
|#/17t2##/17t1#
#18t1#|
#18t2#|-----------------|----------------|-------------------|-----------------------|
|-----------------|----------------|-------------------|-----------------------|
|-----------------|----------------|-------------------|-----------------------|
|-3-3---8-8s3-3-3-|-(3)-8-8--3--8--|-------------------|-----------------------|
|-1-1---6-6s1-1-1-|-(1)-6-6--1--6--|-6-6-6-6-(6)-6-6-1-|-1-1--1--1--1--1--1--1-|
|-----------------|----------------|-6-6-6-6-(6)-6-6-1-|-1-1--1--1--1--1--1--1-|#/18t2##/18t1#


#19t1##19t2#|-----------------|----------------|
|-----------------|----------------|
|-3-3---8-8---3-3-|-----8-8--3--8--|
|-----------------|----------------|
|-1-1---6-6---1-1-|-----6-6--1--6--|
|-----------------|----------------|
|#/19t2##/19t1#
#20t1#| E Q   E E E E E   +E  E Q  Q  Q
#20t2#|-----------------|----------------|
|-----------------|----------------|
|-----------------|----------------|
|-3-3---8-8s3-3-3-|-(3)-8-8--3--8--|
|-1-1---6-6s1-1-1-|-(1)-6-6--1--6--|
|-----------------|----------------|#/20t2##/20t1#


#21t1##21t2#|-------------------|-----------------------||
|-------------------|-----10-10-10-10-10/---||
|-----7-7-(7)---7---|-----------------------||
|-6-6---------6---6-|------7--7--7--7--7/---||
|-------------------|-6-6-------------------||
|-------------------|-----------------------||
|#/21t2##/21t1#
#22t1#|
#22t2#|-------------------|-----------------------||
|-------------------|-----------------------||
|-------------------|-----------------------||
|-------------------|-----------------------||
|-6-6-6-6--6--6-6-6-|-1-1--1--1--1--1--1--1-||
|-6-6-6-6--6--6-6-6-|-1-1--1--1--1--1--1--1-||#/22t2##/22t1#



  Gtrs I, II

#23t1##23t2#|-----------------|-----------------|-----------------|
|-----------------|-----------------|-----------------|
|-----------------|-----------------|-----------------|
|-----------------|-----------------|-----------------|
|-1p0-0-------1s6-|-6-----1---------|-------1-1---1s6-|
|-------2-2p1-----|---0-0---2-1-1s6-|-6-0-0-----2-----|#/23t2##/23t1#



  Gtr I

#24t1##24t2#|------------------------------||----------------------------------|
|-----------------------------o||-11-------------------------------|
|-8-8-8-8----8-----8-----------||----------------------------------|
|------------------------------||--8-------------------------------|
|-6-6-6-6----6-----6----------o||----------------------------------|
|------------------------13\---||----------------------------------|
|#/24t2##/24t1#
| Gtr II
|
#25t1##25t2#|------------------------------||----------------------------------|
|-----------------------------o||----------------------------------|
|-8-8-8-8pb9-8pb10-8pb10-------||----------------------------------|
|------------------------------||----------------------------------|
|-----------------------------o||--1-1-1-1-1-1-6-6-6-6-6-6-1-1-1-1-|
|------------------------13\---||----------------------------------|#/25t2##/25t1#


#26t1#  W
#26t2#|-----------------------------------|
|-----------------------------------|
|-----------------------------------|
|-----------------------------------|
|-----------------------------------|
|-----------------------------------|#/26t2##/26t1#

    gtr II

#27t1##27t2#|-------------------------------|#/27t2##/27t1#
#28t1#| S S S S S S S S S S S S S S S S
#28t2#|-----------------------------------|_______________________
|-----------------------------------|                       |
|-----------------------------------|                       |
|-----------------------------------|                       |
|-1-1-6-6-6-6-6-6-1-1-1-1-6-6-6-6---|                       |gtr 2 toca assim
|-----------------------------------|                       |durante todo
                                                            |o verso com delay
                                                            |#/28t2##/28t1#
#29t1##29t2#|-----------------------|---------------------------------| |
|-----------------------|---------------------------------| |
|-----------------------|---------------------------------|_|
|-----------------------|---------------------------------|
|-----------------------|---------------------------------|
|-6-6-6-6-6-6-6-6-6-6-6-|-1-1-1-1-1-1-1-1-1-1-1-1-1-1-1-1-|#/29t2##/29t1#


  Gtr I
                         ^^^^^^^^^^^^^^^^^ let ring---------
#30t1##30t2#|--------------------------------------------0---0---0----0-|
|------------11-11-11--11-11-11-11-11-11-0-----0---0----0---|
|-8---------------------------------------------------------|
|-8---------------------------------------------------------|
|-----------------------------------------------------------|
|-----------------------------------------------------------|#/30t2##/30t1#

#31t1# let ring------      let ring----------
#31t2#|----------------------/------\--------------------------|
|--11--------------16--17----16-16--16---16--16-16-(16)\-|
|-------------------------13-------------x---x--x--(--)--|
|-------8------/13-----------------------13--13-13-(13)\-|
|--------------------------------------------------------|
|--------------------------------------------------------|#/31t2##/31t1#
 Take     this              a    -    way.____

#32t1##32t2#|-------------------------------------------|
|-11------11/--16--17---16--16-16-16-16-16--|
|-x-------x---------------------------------|
|-8-------8/13------------------------------|
|-------------------------------------------|
|-------------------------------------------|#/32t2##/32t1#
Take    this            a        -
           way._________________
#33t1##33t2#|-------------------------------|
|-16--16-16-16--16--1616161616\-|
|-------------------x-x-x-x-x---|
|-------------------1313131313\-|
|-------------------------------|
|-------------------------------|#/33t2##/33t1#

#34t1#____  I can feel it on my mouth   I can taste you on my fin-
#34t2#|----------------------------------------------------------
|-11-----12----------11--------17-16--------16------16-----
|-x-------x----------x----------x--------------------x-----
|-8-------9----------8---------14------13-----------13-----
|----------------------------------------------------------
|----------------------------------------------------------#/34t2##/34t1#

#35t1#-gers  I can hear you like the  ho - ly ghost__ and
#35t2#|-------------------------------------------------------|
|-11-----12--------11-------------16--16-16-16-16-16-16-|
|-x------x---------x--------------13--13-13-13-13-13-13-|
|-8------9---------8------------------------------------|
|-------------------------------------------------------|
|-------------------------------------------------------|#/35t2##/35t1#


#36t1##36t2#|---------------------------------|---------------|-----------------||
|---------------------------------|---------------|-----------------||
|---------------------------------|---------------|-----------------||
|---------------------------------|---------------|-----------------||
|---------------------------------|-1-----6----1--|---6----1-1-6-6--||
|-xs======xs======xs======x-------|-1-----6----1--|---6----1-1-6-6--||
|#/36t2##/36t1#
#37t1#|
#37t2#|---------------------------------|---------------|-----------------||
|---------------------------------|---------------|-----------------||
|---------------------------------|---------------|-----------------||
|---------------------------------|---------------|-----------------||
|---------------------------------|-1-----6----1--|---6----1-1-6-6--||
|-1-1-1-1-1-1-1-1-1-1-1-1-1-1-1-1-|-1-----6----1--|---6----1-1-6-6--||#/37t2##/37t1#


#38t1##38t2#|-------------------|-----------------------|
|-------------------|-----10-10-10-10-10/---|
|-----7-7-(7)---7---|-----------------------|
|-6-6---------6---6-|------7--7--7--7--7/---|
|-------------------|-6-6-------------------|
|-------------------|-----------------------|
|#/38t2##/38t1#
#39t1#|
#39t2#|-------------------|-----------------------|
|-------------------|-----------------------|
|-------------------|-----------------------|
|-------------------|-----------------------|
|-6-6-6-6--6--6-6-6-|-1-1--1--1--1--1--1--1-|
|-6-6-6-6--6--6-6-6-|-1-1--1--1--1--1--1--1-|#/39t2##/39t1#


  Gtrs I, II

#40t1##40t2#|-----------------|-----------------|-----------------|
|-----------------|-----------------|-----------------|
|-----------------|-----------------|-----------------|
|-----------------|-----------------|-----------------|
|-1p0-0-------1s6-|-6-----1---------|-------1-1---1s6-|
|-------2-2p1-----|---0-0---2-1-1s6-|-6-0-0-----2-----|#/40t2##/40t1#



#41t1##41t2#|-----------------|-----------------|-----------------|
|-----------------|-----------------|-----------------|
|-----------------|-----------------|-----------------|
|-----------------|-----------------|-----------------|
|-6-----1---------|-------1-1---1s6-|-6-----1---------|
|---0-0---2p1-1s6-|-6-0-0-----2-----|---0-0---2-1-1s6-|#/41t2##/41t1#



#42t1##42t2#|-----------------|----------------||------------------|
|-----------------|----------------||o-----------------|
|-----------------|----------------||------------------|
|-----------------|-------3--------||--------3-3---3s8-|
|-------1-1---1s6-|-6-----1-----1--||o-6-----1-1---1s6-|
|-6-0-0-----2-----|---0-0---2-1-1--||--6-0-0-----2-----|#/42t2##/42t1#



#43t1##43t2#|-----------------|-----------------|------------------||
|-----------------|-----------------|-----------------o||
|-----------------|-----------------|------------------||
|-8-----3---------|-------3-3---3s8-|-8-----3----------||
|-6-----1-2-1-1s6-|-6-----1-1---1s6-|-6-----1-2-1-1s6-o||
|---0-0---2-1-1s6-|-6-0-0-----2-----|---0-0---2-1-1s6--||#/43t2##/43t1#



#44t1##44t2#|-----------------|-----------------||-------------------|
|-----------------|-----------------||o------------------|
|-----------------|-----------------||-------------------|
|-------3-3---3s8-|-8-----3---------||-------------------|
|-6-----1-1---1s6-|-6-----1-2-1-1s6-||o------------------|
|-6-0-0-----2-----|---0-0---2-1-1s6-||--6-0----(0)-1-1s6-|
|#/44t2##/44t1#
| Gtr II
|
#45t1##45t2#|-----------------|-----------------||-------------------|
|-----------------|-----------------||o------------------|
|-----------------|-----------------||-------------------|
|-------3-3---3s8-|-8-----3---------||-------------------|
|-6-----1-1---1s6-|-6-----1-2-1-1s6-||o-6-0----(0)-------|
|-6-0-0-----2-----|---0-0---2-1-1s6-||--6-0----(0)-------|#/45t2##/45t1#



#46t1##46t2#|--------------------|--------------------|---------------------||
|--------------------|--------------------|--------------------o||
|--------------------|--------------------|---------------------||
|--------------------|--------------------|---------------------||
|--------------------|--------------------|--------------------o||
|--6--0----(0)-1-1s6-|--6--0----(0)-1-1s6-|--6--0----(0)-1-1s6--||
|#/46t2##/46t1#
#47t1#|
#47t2#|--------------------|--------------------|---------------------||
|--------------------|--------------------|--------------------o||
|--------------------|--------------------|---------------------||
|--------------------|--------------------|---------------------||
|-(0)----------------|-(0)----------------|-(0)------(0)-1-1s6-o||
|-(0)----------------|-(0)----------------|-(0)------(0)-1-1s6--||#/47t2##/47t1#


#48t1##48t2#|------------------|--------------------|
|------------------|--------------------|
|------------------|--------------------|
|------------------|--------------------|
|------------------|--------------------|
|-6-0----(0)-1-1s6-|--6--0----(0)-1-1s6-|
|#/48t2##/48t1#
#49t1#|
#49t2#|------------------|--------------------|
|------------------|--------------------|
|------------------|--------------------|
|------------------|--------------------|
|-6----------------|--------------------|
|-6-0----(0)-------|-(0)----------------|#/49t2##/49t1#



#50t1##50t2#|--------------------|-----------------*|
|--------------------|-----------------*|
|--------------------|-----------------*|
|--------------------|-----------------*|
|--------------------|-----------------*|
|--6--0----(0)-1-1s6-|--6--0----(0)----*|
|#/50t2##/50t1#
#51t1#|
#51t2#|--------------------|-----------------*|
|--------------------|-----------------*|
|--------------------|-----------------*|
|--------------------|-----------------*|
|--------------------|-----------------*|
|-(0)----------------|-(0)------(0)----*|#/51t2##/51t1#
Composição: SlipknotColaboração e revisão: gustavo marquesfernando gonçalves