Mate Feed Kill Repeat

Slipknot

A
123
X02220
B
234
X24442
D
123
XX0232
E
123
022100
G
123
320003
Tom: G
RIFF A (2:10)
COUNT|1---2---3---4---1---2---3---4---|
#1t1##1t2#    D|--------------------------------|
    A|--------------------------------|
    F|--------------------------------|
    C|--------------------------------|    x4
    G|0-0---0-0-0---0-0-0---0-0-0-1---|
    C|0-0---0-0-0---0-0-0---0-0-0-1---|
P.M.  - -   - - -   - - -   - - -#/1t2##/1t1#

RIFF B (2:24)
COUNT|1---2---3---4---1---2---3---4---| 
#2t1##2t2#    D|--------------------------------|
    A|--------------------------------|
    F|--------------------------------|
    C|--------------------------------|    x4
    G|0-0-----0-0-----0-0-----0-0-1---|
    C|0-0---010-0---010-0---010-0-1---|
P.M.  - -   --- -   --- -   --- -  #/2t2##/2t1#
             ^       ^       ^
RIFF C (2:38)
COUNT|1---2---3---4---1---2---3---4---|
#3t1##3t2#    D|--------------------------------|
    A|--------------------------------|
    F|--------------------------------|
    C|--------------------------------|    x4
    G|5-5-----3-3-----0-0---0-0-0-1---|
    C|5-5-22223-3-11110-0---0-0-0-1---|
P.M.  - - ----- - ----- -   - - -#/3t2##/3t1#
           ^ ^     ^ ^ 
FILL A (2:53)
COUNT|4---|
#4t1##4t2#    D|----|
    A|----|
    F|----|
    C|----|     
    G|3\2-|
    C|3\2-|#/4t2##/4t1#

RIFF D (2:54)
COUNT|1---2---3---4---|
#5t1##5t2#    D|----------------|
    A|----------------|
    F|----------------|
    C|----------------|    x8   
    G|0-0-----0-0-3\2-|
    C|0-0-01000-0-3\2-|
P.M.  - - ----- - #/5t2##/5t1#
           ^ ^   
RIFF E (3:08)
COUNT|1---2---3---4---|
#6t1##6t2#    D|----------------|
    A|----------------|
    F|----------------|
    C|----------------|    x2   
    G|------------1---|
    C|000-000-000-1---|
P.M.  --- --- --- #/6t2##/6t1#
       ^   ^   ^
Then play RIFF D x2 and after that repeat the combination of those 
two riffs(RIFF E x2,RIFF D x2) once more.This combination is COMBO A .

RIFF F (3:23)
COUNT|1---2---3---4---|
#7t1##7t2#    D|----------------|
    A|----------------|
    F|----------------|
    C|----------------|    x2   
    G|----------------|
    C|5-5-22223-3-1111|
P.M.  - - ----- - ----#/7t2##/7t1#
           ^ ^     ^ ^ 

RIFF G (3:26)
COUNT|1---2---3---4---|
#8t1##8t2#    D|----------------|
    A|----------------|
    F|----------------|
    C|----------------|    x2   
    G|----------------|
    C|5555222233331111|
P.M.  ----------------#/8t2##/8t1#
       ^ ^ ^ ^ ^ ^ ^ ^ 

Then play FILL A (3:30).
Then play RIFF D x8(3:30),COMBO A (3:45),RIFF F x2(3:59),RIFF G x2(4:02).

FILL B (4:07)
COUNT|4---| 
#9t1##9t2#    D|----|
    A|----|
    F|----|
    C|----|     
    G|--1-|
    C|--1-|#/9t2##/9t1#

RIFF H (4:08)
COUNT|1---2---3---4---1---2---3---4---| 
#10t1##10t2#    D|--------------------------------|
    A|--------------------------------|
    F|--------------------------------|
    C|--------------------------------|    x4   
    G|0-0-----0-0-----0-0-----0-0---1-|
    C|0-0---010-0---010-0---010-0---1-|
P.M.  - -   --- -   --- -   --- -  #/10t2##/10t1#

RIFF I (4:22)
COUNT|1---2---3---4---1---2---3---4---| 
#11t1##11t2#    D|--------------------------------|
    A|--------------------------------|
    F|--------------------------------|
    C|--------------------------------|    x2 
    G|0-----------------------------1-|
    C|0-----------------------------1-|#/11t2##/11t1#

Then play RIFF H x2(4:29).

RIFFS K & L are played in the same time.When RIFF K is played twice 
by Guitar 1, RIFF l is played once by Guitar 2.  

GUITAR 1
RIFF K (4:36)
COUNT|1---2---3---4---1---2---3---4---1---2---3---4---1---2---3---4---|
#12t1##12t2#    D|----------------------------------------------------------------|
    A|----------------------------------------------------------------|
    F|----------------------------------------------------------------|
    C|----------------------------------------------------------------|    x4 
    G|----------------------------------------------------------------|
    C|0-----7~~---------------7---5---8~~---7~~---5~~-----------------|#/12t2##/12t1#

GUITAR 2
RIFF L (4:36) 
COUNT|1---2---3---4---1---2---3---4---1---2---3---4---1---2---3---4---|  |
#13t1##13t2#    D|----------------------------------------------------------------|  |
    A|------7-----------------8---7-8-10----9-------------------------|  |
    F|7-------------------------------------------7---------------5---|  |
    C|----------------------------------------------------------------|  |  
    G|----------------------------------------------------------------|  |
    C|----------------------------------------------------------------|  |   
                                                                         | #/13t2##/13t1#
RIFF L (cont.)                                                           |  x2 
COUNT|1---2---3---4---1---2---3---4---1---2---3---4---1---2---3---4---|  |
#14t1##14t2#    D|----------------------------------------------------------------|  |
    A|------7-----------------8---7-----------------------------------|  |
    F|7-------------------------------7-----5-------------------------|  |
    C|----------------------------------------------------------------|  |   
    G|----------------------------------------------------------------|  |
    C|----------------------------------------------------------------|  |#/14t2##/14t1#

RIFFS M & N are played at the same time. 

GUITAR 1 
RIFF M (5:05)
COUNT|1---2---3---4---1---2---3---4---| 
#15t1##15t2#    D|--------------------------------|
    A|--------------------------------|
    F|----7-----5-----3-------3-----3-|
    C|--7-----5-----3-----3-------3---|    x2 
    G|5-----3-----1-----1---1---1-----|
    C|--------------------------------|
P.M.  - -   - -   - -   - - -   - -#/15t2##/15t1#
                          ^   ^   ^
GUITAR 2
RIFF N (5:05)
COUNT|1---2---3---4---1---2---3---4---| 
#16t1##16t2#    D|--------------------------------|
    A|----10----8-----6-------6-----6-|
    F|--7-----5-----3-----3-------3---|
    C|7-----5-----3-----3---3---3-----|    x2 
    G|--------------------------------|
    C|--------------------------------|
P.M.  - -   - -   - -   - - -   - -#/16t2##/16t1#
                          ^   ^   ^
Then keep playing RIFF M on GUITAR 1 for 2 more times but in GUITAR 2 play RIFF P:

GUITAR 2
RIFF P (5:12)
COUNT|1---2---3---4---1---2---3---4---| 
#17t1##17t2#    D|--------------------------------|
    A|----3-----5-----6-------6-----6-|
    F|--2-----0-----3-----3-------3---|
    C|0-----2-----3-----3---3---3-----|    x2 
    G|--------------------------------|
    C|--------------------------------|
P.M.  - -   - -   - -   - - -   - -#/17t2##/17t1#
                          ^   ^   ^
RIFF Q (5:19)
COUNT|1---2---3---4---1---2---3---4---| 
#18t1##18t2#    D|--------------------------------|
    A|--------------------------------|
    F|--------------------------------|
    C|--------------------------------|    x4 
    G|0-----0-----0-----0-----0---0h1-|
    C|0-----0-----0-----0-----0---0h1-|
P.M.  -     -     -     -     -#/18t2##/18t1#

RIFF R (5:33)
COUNT|1---2---3---4---1---2---3---4---| 
#19t1##19t2#    D|--------------------------------|
    A|--------------------------------|
    F|--------------------------------|
    C|------------------3-------------|    x4 
    G|0-----3-----2-----1-----0-3-2---|
    C|0-----3-----2-----------0-3-2---|#/19t2##/19t1#

Then play RIFF Q x4(5:47)

RIFF S (6:01)
COUNT|1---2---3---4---1---2---3---4---| 
#20t1##20t2#    D|--------------------------------|
    A|--------------------------------|
    F|--------------------------------|
    C|--------------------------------|    x4
    G|--------------------------------|
    C|5-2-1-2-1-0-5-2-1-2-1-0-5-2-1-2-|
P.M.  - - - - - - - - - - - - - - - - #/20t2##/20t1#
        ^   ^   ^   ^   ^   ^   ^   ^
Then on GUITAR 1 play RIFF R x4(6:14) while playing RIFF L x1(6:14) on GUITAR 2. 
End the song by playing RIFF R x4 on GUITAR 1 while leaving GUITAR 2 open.

Gently (MFKR version)

RIFF A (0:00) (clean)
COUNT|1-------2-------3-------4-------|1-------2-------3-------4-------| \
#21t1##21t2#    D|----------------1--p0-----------|----------------0---------------|  \
    A|--------3---------------3-------|--------3-----------3-------3---|   \
    F|----2-------2---------------2/3-|----3-------3-----------3-------|    \
    C|0-------------------------------|0-------------------------------|     \
    G|--------------------------------|--------------------------------|      \
    C|--------------------------------|--------------------------------|       \
                                                                                |#/21t2##/21t1#
#22t1#COUNT|1-------2-------3-------4-------|1-------2-------3-------4-------|        |
#22t2#    D|--------------------------------|--------------------------------|        |
    A|--------------------------------|--------------------------------|        |
    F|--------2-------3-----------3---|--------3-------2---------------|        |
    C|----2---------------------------|--------------------------------|        |
    G|0-----------0-------0---0-------|0---0-------0-------0---0---0---|        |
    C|--------------------------------|--------------------------------|        |#/22t2##/22t1#
                                                                                | Guitar 1 x 3
COUNT|1-------2-------3-------4-------|1-------2-------3-------4-------|        |
#23t1##23t2#    D|----------------4--/5-----------|----8--p6---------------6-------|        |
    A|----5--/6---------------6-------|------------6-------6-------6---|        |
    F|----------------------------7---|----------------7---------------|        |
    C|0-----------0-------------------|0-------------------------------|        |
    G|--------------------------------|--------------------------------|        |
    C|--------------------------------|--------------------------------|        |
                                                                                |#/23t2##/23t1#
#24t1#COUNT|1-------2-------3-------4-------|1-------2-------3-------4-------|       /
#24t2#    D|--------------------------------|--------------------------------|      /
    A|--------------------------------|--------------------------------|     /
    F|--------2-------3-----------3---|--------3-------2---------------|    /
    C|----2---------------------------|--------------------------------|   /
    G|0-----------0-------0---0-------|0---0-------0-------0---0---0---|  /
    C|--------------------------------|--------------------------------| /#/24t2##/24t1#

RIFF B (0:13) (clean)
COUNT|1-------2-------3-------4-------|1-------2-------3-------4-------| \
#25t1##25t2#    D|----------------8--p7-----------|----------------7---------------|  \
    A|--------10--------------10------|--------10----------10------10--|   \
    F|----10------10--------------10--|----10------10----------10------|    \
    C|0-------------------------------|0-------------------------------|     \
    G|--------------------------------|--------------------------------|      \
    C|--------------------------------|--------------------------------|       \
                                                                                |#/25t2##/25t1#
#26t1#COUNT|1-------2-------3-------4-------|1-------2-------3-------4-------|        |
#26t2#    D|--------------------------------|--------------------------------|        |
    A|--------2-------3-----------3---|--------3-------2---------------|        |
    F|--------------------------------|--------------------------------|        |
    C|----2---------------------------|--------------------------------|        |
    G|0-----------0-------0---0-------|0---0-------0-------0---0---0---|        |
    C|--------------------------------|--------------------------------|        |#/26t2##/26t1#
                                                                                | Guitar 2 x 2
COUNT|1-------2-------3-------4-------|1-------2-------3-------4-------|        |
#27t1##27t2#    D|----------------0--h1-----------|----------------0--h1-----------|        |
    A|--------3---------------3-------|--------3---------------3-------|        |
    F|----2-------2---------------2---|----2-------2---------------2---|        |
    C|0-------------------------------|0-------------------------------|        |
    G|--------------------------------|--------------------------------|        |
    C|--------------------------------|--------------------------------|        |
                                                                                |#/27t2##/27t1#
#28t1#COUNT|1-------2-------3-------4-------|1-------2-------3-------4-------|       /
#28t2#    D|--------------------------------|--------------------------------|      /  
    A|--------2-------3-----------3---|--------3-------2---------------|     /
    F|--------------------------------|--------------------------------|    /
    C|----2---------------------------|--------------------------------|   /
    G|0-----------0-------0---0-------|0---0-------0-------0---0---0---|  /
    C|--------------------------------|--------------------------------| /#/28t2##/28t1#

RIFF C (0:53) (clean)
COUNT|1-------2-------3-------4-------|1-------2-------3-------4-----| \
#29t1##29t2#    D|----------------1--p0-----------|----------------3-------------|  \
    A|--------3---------------3-------|--------1-----------1-------1-|   \
    F|----2-------2-------------------|----2-------2-----------2-----|    \
    C|0---------------------------0---|3-----------------------------|     \
    G|--------------------------------|------------------------------|      \
    C|--------------------------------|------------------------------|       \#/29t2##/29t1#
                                                                              | Guitar 1+2 x 4
COUNT|1-------2-------3-------4-------|1-------2-------3-------4-----|        |
#30t1##30t2#    D|----------------0---------------|----0---------------0---------|       /
    A|--------3-----------3-------3---|--------3---------------3-----|      /
    F|----0-------0-----------0-------|------------------------------|     /
    C|--------------------------------|------------------------------|    /
    G|3-------------------------------|1-----------1---3-----------3-|   / 
    C|--------------------------------|------------------------------|  /#/30t2##/30t1#

Then (1:21) hit C-F-C open and let them ring while turning distortion on.

RIFF D (1:47)
COUNT|1---2---3---4---|1---2---3---4---|1---2---3---4---|1---2---3---4---|  
#31t1##31t2#    D|----------------|----------------|----------------|----------------|   
    A|----------------|----------------|----------------|----------------|   
    F|----------------|----------------|----------------|----------------|   Guitar 1+2 x 2
    C|0---------------|8---------------|8p7-------------|----------------|    
    G|0---------------|8-----------8-8-|8p7-------------|----------------|     
    C|0---------------|8-----------8-8-|8p7-------------|----------------|     
P.M.                               - -#/31t2##/31t1#

RIFF E (2:00)
COUNT|1---2---3---4---|1---2---3---4---|1---2---3---4---|1---2---3---4--|  \
#32t1##32t2#    D|----------------|----------------|----------------|---------------|   \
    A|----------------|----------------|----------------|---------------|    \
    F|----------------|----------------|----------------|---------------|     \
    C|0-------0-------|8-------8-------|8p7-----7-----7-|----7----------|      \
    G|0-------0-------|8-------8-------|8p7-----7-----7-|----7----------|       \
    C|0---0-0-0-0-0-0-|8-8-8-8-8-8-8-8-|8p7-7-7-7-7-7-7-|7-7-7-7-7-7-7-0|        |#/32t2##/32t1#
P.M.      - -   - - -    - - -   - - -      - -   - -    - -   - - - - -         |Guitar 1+2 x 2
                                                                                 |
COUNT|1---2---3---4---|1---2---3---4---|1---2---3---4---|1---2---3---4--|        |
#33t1##33t2#    D|----------------|----------------|----------------|---------------|       /
    A|----------------|----------------|----------------|---------------|      /
    F|----------------|4-------5-------|----------------|---------------|     /
    C|1-------1-------|----------------|----7-----------|---------------|    /
    G|1-------1-------|2-------3-------|5-4-7-----------|7p6------------|   /
    C|1-1-1-1-1-1-1-1-|----------------|5-4-7-----------|----4h5--1~~~--|  /
P.M.    - - -   - - -                   - -#/33t2##/33t1#

Now (2:28), I hope you can make out what the two guitars are playing, 
it's really easy, and I'm too bored to write it down.

Then (3:15) play RIFF E x 2

RIFF F (3:54)
COUNT|1---2---3---4---|1---2---3---4---|
#34t1##34t2#    D|----------------|----------------|
    A|----------------|----------------|
    F|----------------|----------------|
    C|--------3-------|----1---------0-|
    G|--------3-------|----1---------0-|
    C|0-0-1-0-3-----0-|4-3-1-----0-0-0-|#/34t2##/34t1#

Do Nothing/ Bitchslap

#35t1##35t2#|------------------------------|
|------------------------------|
|------------------------------|
|--0-0-0-0-3--0-0-0-0-3--0-0-4-|
|--0-0-0-0-3--0-0-0-0-3--0-0-4-|
|--0-0-0-0-3--0-0-0-0-3--0-0-4-|#/35t2##/35t1#

Smooth Jazz Part
~~~~~~~~~~~~~~~~
#36t1##36t2#|----------------------------------------12--15----14h12--14-12------------15--14--13--12-|
|-14--13--12--11-----------------14--13--12--15----12-12--12-12--12--11----15--14--13--12-|
|-13--12--11--10--9--10--11--12--13--12--12--15----12-12--12-12--11--10-------------------|
|-----------------8---9--10--11-----------------------------------------------------------|
|-----------------------------------------------------------------------------------------|
|-----------------------------------------------------------------------------------------|#/36t2##/36t1#

#37t1##37t2#|--15--16--17--18-19-20-|
|--15--16--17--18-19-20-|
|-----------------------|
|-----------------------|
|-----------------------|
|-----------------------|#/37t2##/37t1#

Second Riff in Heavy Part
~~~~~~~~~~~~~~~~~~~~~~~~~
#38t1##38t2#|-------------------|
|-------------------|
|-------------------|
|--8p7-9p8-10p9-9p8-|
|--8p7-9p8-10p9-9p8-|
|--8p7-9p8-10p9-9p8-|#/38t2##/38t1#

Funk Part
~~~~~~~~~
#39t1##39t2#|--7/8-8-x-x-4-5-4-5----7/8-8-x-x-4-x-x-4-5-| 2nd guitar strums
|--7/8-8-x-x-4-5-4-5----7/8-8-x-x-4-x-x-4-5-| the strings while
|--7/8-8-x-x-4-5-4-5----7/8-8-x-x-4-x-x-4-5-| muting them and
|-------------------------------------------| fooling around
|-------------------------------------------| with the wah
|-------------------------------------------| pedal#/39t2##/39t1#

Other Riff of Funk Part
~~~~~~~~~~~~~~~~~~~~~~~
#40t1##40t2#|--3-----3-6--8-|-5--5-|
|--3-----3-6--8-|-5--5-|
|--3-----3-6--8-|-5--5-|
|---------------|------|
|---------------|------|
|---------------|------|#/40t2##/40t1#

Only One

#41t1#Riff 1
#41t2#----------|-17v-----|----------|-17v------|
-17v------|---------|-17v------|----------|
----------|---------|----------|----------|
----------|---------|----------|----------|
----------|---------|----------|----------|
----------|---------|----------|----------|#/41t2##/41t1#


#42t1#Riff 2
#42t2#---------------------------|
---------------------------|
---------------------------|
----3-2-------3-------2----|
-0--1-0--3-2--1--2-1--0--1-|
-0-------3-2-----2-1-----1-|#/42t2##/42t1#


#43t1#Riff 3
#43t2#-4v---4/-|-4---------|
-4v------|-------3---|
-3v------|-------3---|
-3v------|---------2-|
---------|---------2-|
---------|-----------|#/43t2##/43t1#

#44t1#Riff 4
#44t2#--------------|
--------------|
--------------|
-3-------2----|
-1--2-1--0----|
----2-1-------|#/44t2##/44t1#

#45t1#Riff 5
#45t2#----------------------------|
----------------------------|
----------------------------|
----------------------------|
---------5--6-----------5-6-|
-3-0---0-5--6---3-0---0-5-6-|#/45t2##/45t1#
 - -   -        - -   -     |palm muting
                                                                  
#46t1#Riff 6
#46t2#------------------------------|
------------------------------|
------------------------------|
------------------------------|
---------5--6-----------5-6---|
-3-0---0-5--6---3-0---0-5-6-1-|#/46t2##/46t1#
 - -   -        - -   -     - |palm muting

#47t1#Riff 7
#47t2#-------------------------|-------------------------|
-------------------------|-------------------------|
-------------------------|-------------------------|
-------------------------|-------------------------|
------5--3--------5--3---|------5--3-1-2-1-2-3-2-1-|
-0--3------1-0--3------1-|-0--3------1-2-1-2-3-2-1-|#/47t2##/47t1#
    -      -    -      -      -      - - - - - - - |palm muting

#48t1#Riff 8
#48t2#-----------------|
-----------------|
-----------------|
-----------------|
-1-0-1-3-4-3-1-3-|
-1-0-1-3-4-3-1-3-|#/48t2##/48t1#

Tattered and Torn

#49t1#Riff 1
#49t2#-18p17h18-------------17h18p17h18----------------|
----------19h20p19h20-------------16h17p16h17p16-|
-------------------------------------------------|
-------------------------------------------------|
-------------------------------------------------|
-------------------------------------------------|#/49t2##/49t1#

#50t1#Riff 2
#50t2#--------------------|-------------------|-------------------|-----------------|
-16-----------------|-------------------|-------------------|-11\-------------|
--------------------|-------------------|-------------------|-----------------|
--------------------|-------------------|-------------------|-----------------|
--------------------|-------------------|-------------------|-----------------|
--------------------|-------------------|-------------------|-----------------|#/50t2##/50t1#
 Hold note using a whammy pedal. Throughout the next 3 measures.
 Listen to the cd, I have no idea how to tab it.  

#51t1#Riff 3
#51t2#-18\----------------|
--------------------|
--------------------|
--------------------|
--------------------|
--------------------|#/51t2##/51t1#
 Very gradually slide down.

#52t1#Riff 4
#52t2#----------------------------|
----------------------------|
----------------------------|
----------------------------|
-0-0--0-1p0--0-3p0--0-1p0-4-|
-0-0--0-1p0--0-3p0--0-1p0-4-|#/52t2##/52t1#

#53t1#Riff 5
#53t2#-------------------------------|
-------------------------------|
-------------------------------|
-------------------------------|
-0-0-0-0-1p0-0-0-3p0-0-0-1p0-4-|
-0-0-0-0-1p0-0-0-3p0-0-0-1p0-4-|#/53t2##/53t1#

Confessions

E||-------------------------|---------------------------|----------------------| 
B||-------------------------|---------------------------|----------------------| 
G||--------9--------8--8----|--------9--------8---------|--10------------10----| 
D||-----9--------9-----9----|-----9--------9--------10--|----------------10----| 
A||--7--------7--------7----|--7--------7--------7------|----------------7-----| 
E||-------------------------|---------------------------|----------------------| 

                   Riff 1 

#54t1##54t2#--9--9--x-x-x-x-x-11-11-x-x-x-x-x-9--9--|--x-x-x-x-x-9--9--9--9--|
--9--9--x-x-x-x-x-11-11-x-x-x-x-x-9--9--|--x-x-x-x-x-9--9--9--9--|
--9--9--x-x-x-x-x-11-11-x-x-x-x-x-9--9--|--x-x-x-x-x-11-11-11-11-|
--11-11-x-x-x-x-x-13-13-x-x-x-x-x-11-11-|--x-x-x-x-x-11-11-11-11-|
--11-11-x-x-x-x-x-13-13-x-x-x-x-x-11-11-|--x-x-x-x-x-9--9--9--9--|
--9--9--x-x-x-x-x-11-11-x-x-x-x-x-9--9--|--x-x-x-x-x-9--9--9--9--|#/54t2##/54t1#

Riff2  

#55t1##55t2#--2-2-x-x-x-x-x-4-4-x-x-x-x-x-2-2-|--x-x-x-x-x-2-2-2-1--------| 
--2-2-x-x-x-x-x-4-4-x-x-x-x-x-2-2-|--x-x-x-x-x-2-2-2-1--------| 
--2-2-x-x-x-x-x-4-4-x-x-x-x-x-2-2-|--x-x-x-x-x-4-4-4-3--------| 
--4-4-x-x-x-x-x-6-6-x-x-x-x-x-4-4-|--x-x-x-x-x-4-4-4-3--------| 
--4-4-x-x-x-x-x-6-6-x-x-x-x-x-4-4-|--x-x-x-x-x-2-2-2-1--------| 
--2-2-x-x-x-x-x-4-4-x-x-x-x-x-2-2-|--x-x-x-x-x-2-2-2-1--------| #/55t2##/55t1#

chorus starts here 

#56t1##56t2#--x-x-2--------------|--------------------------| 
--x-x-2--------------|--------------------------| 
--x-x-4--------------|--------------------------| 
--x-x-4--------------|--------------------------| 
--x-x-2--------------|--------------------------| 
--x-x-2--------------|--0--2--3--5--6--6--5--6--| #/56t2##/56t1#

Chorus 

#57t1##57t2#-----5-5-5-5-4-5-4-5-------------|--------------------| 
-----5-5-5-5-4-5-4-5-------------|--------------------| 
-----5-5-5-5-4-5-4-5-------------|--------------------| 
---------------------5-5-5-5-4-5-|--4-5---------------| 
--5------------------5-5-5-5-4-5-|--4-5---------------| 
---------------------5-5-5-5-4-5-|--4-5---------------| #/57t2##/57t1#

solo: 

#58t1##58t2#------------------------------------|------5--3---8-5---------------------| 
----------------------------------0-|--3-3------6-----8-6-6~13--13--6--13-| 
------------------------------------|-------------------------------------| 
----------------------------4-5-4---|-------------------------------------| 
--------------------0-2-3-2---------|-------------------------------------| 
--7----7--10--7--4------------------|-------------------------------------| #/58t2##/58t1#


#59t1##59t2#----13-13-13-13-10-9-7-5-7-3-7-7-7-----------|-------------------------------|
-15--------------------------------5-3-2-----|-------------------------6-4-3-|
-----------------------------------------7-5-|-------------------------------|
---------------------------------------------|-6--7--------------6-4-3-------|
---------------------------------------------|-------------6-4-3-------------|
---------------------------------------------|-------7-5-4-------------------|#/59t2##/59t1#

#60t1##60t2#--6-4-3-8-6-5-12-10-9----------------------| 
----------------------15-13-12-------------| 
-------------------------------17-15-14-15-| 
-------------------------------------------| 
-------------------------------------------| 
-------------------------------------------| #/60t2##/60t1#

#61t1##61t2#---------------13-10-8-8---------------| 
---------12-10-----------9-7-9---------| 
--9-9-11-----------------------7-5-4-5-| 
---------------------------------------| 
---------------------------------------| 
---------------------------------------| #/61t2##/61t1#

#62t1##62t2#--11-11-11-11-11-11-11-11-11-11-11-11-11-11-11-11-13-13-13-13-13-13-13-13-13-13-
--9--9--9--9--9--9--9--9--9--9--9--9--9--9--9--9--11-11-11-11-11-11-11-11-11-11-
--------------------------------------------------------------------------------
--------------------------------------------------------------------------------
--------------------------------------------------------------------------------
--------------------------------------------------------------------------------#/62t2##/62t1#

#63t1##63t2#--15-15-15-15-15-15-15-15-15-15-15-15-15-15-15-15-17-17-17-17-17-17-17-17-17-17-
--13-13-13-13-13-13-13-13-13-13-13-13-13-13-13-13-15-15-15-15-15-15-15-15-15-15-
--------------------------------------------------------------------------------
--------------------------------------------------------------------------------
--------------------------------------------------------------------------------
--------------------------------------------------------------------------------#/63t2##/63t1#

#64t1##64t2#--19-15-13-12-13-10-9-9-11-15--17-13-15-13-9-| 
---------------------------------------------| 
---------------------------------------------| 
---------------------------------------------| 
---------------------------------------------| 
---------------------------------------------| #/64t2##/64t1#

#65t1##65t2#--11-7-9-5-7-3-5-------------------| 
-----------------9-7-9-7-5-4-4-5-2-| 
-----------------------------------| 
-----------------------------------| 
-----------------------------------| 
-----------------------------------| #/65t2##/65t1#

(I'm not sure here, it's played very fast!!!!) 

#66t1##66t2#-1-1-1-1-1-1-1-1-1-1-1-1-1-1-1-1-3-3-3-3-3-3-3-3-3-3-3-3-3-3-3-3-7-7-7-7-7-7-7-
-1-1-1-1-1-1-1-1-1-1-1-1-1-1-1-1-3-3-3-3-3-3-3-3-3-3-3-3-3-3-3-3-7-7-7-7-7-7-7-
-------------------------------------------------------------------------------
-------------------------------------------------------------------------------
-------------------------------------------------------------------------------
-------------------------------------------------------------------------------#/66t2##/66t1#

                          (After the solo, play this!) 

#67t1##67t2#--12-12-15-12-10-9-10----------|--5----3----7--------| 
-------------------------------|--5----3----8--------| 
-------------------------------|--6----4----9--------| 
-------------------------------|--7----5----9--------| 
-------------------------------|--7----5----7--------| 
-------------------------------|--5----4----7--------| #/67t2##/67t1#

Riff 3 End of the song!!!!!!!

#68t1##68t2#--3-4-4--4--1--2--1--2--7--||
--3-4-4--4--1--2--1--2--8--||
--3-4-4--4--1--2--1--2--9--||
------------------------9--||
------------------------7--||
------------------------7--||#/68t2##/68t1#

Killers are Quiet

#69t1# Riff 1
#69t2#|---------------|
|---------------|
|---------------|
|---------------|
|-14------------|
|----12h14----9-|#/69t2##/69t1#

#70t1# Riff 2
#70t2#|--------------|--------------|
|--------------|--------------|
|-5b------6--3-|-5b-----------|
|-3b--5---4--1-|-3b--5--------|
|-----3--------|-----3--------|
|--------------|--------------|#/70t2##/70t1#

#71t1# Riff 3a                        Riff 3b
#71t2#|--------------| If 3a doesn't |--------------|
|--------------| sound right,  |--------------|
|-4b------5--2-|    try 3b     |-4b--2---5--2-|
|-----4--------|               |--------------|
|--------------|               |--------------|
|--------------|               |--------------|#/71t2##/71t1#

#72t1# Riff 4 (Bass Transcribed for Guitar)
#72t2#|-----------------|
|-----------------|
|-----------------|
|-----------------|
|-----------------|
|-0-0-1-0-0-1-0-1-|#/72t2##/72t1#
Composição: Jay Weinberg / Mick Thomson / Sid Wilson / Alessandro Venturella / Allan Rock / Anders Colsefni / Chris Fehn / Corey Taylor / Craig Jones / James Root / Jim Root / Joey Jordison / Josh Brainard / M. Shawn Crahan / Mick Thomson / Paul Gray / Ritch Ronnan / Shawn Crahan / Sid Wilson / Slipknot / Slipknot feat Linkin ParkColaboração e revisão: James Johny