busca

My Plague

Slipknot

Tom: E
Guitar 1
B |----------------------|
F#|----------------------|
D |----------------------|
A |----------------------|
E |-0-0-0-0-0------------|
A |-0-0-0-0-0------------|

Guitar 2
B |----------------------------|
F#|----------------------------|
D |----------------------------|
A |----------------------------|
E |-0-0-0-0-0------------------|
A |-0-0-0-0-0--1h2-2p1---------|


Verse:

B |--------------------------|
F#|--------------------------|
D |--------------------------|
A |--------------------------|
E |-0-0-0--1h2-2p1-----------|
A |-0-0-0--1h2-2p1-----------|



Chorus:
Micky's part.

B |-------------------------------------|
F#|-------------------------------------|
D |--------7----10---12-----------------|
A |-------------------------------------|
E |-0-0-0--5----8----10--22222/666666---|
A |-0-0-0----00---00-----22222/666666---|


Jimmy's part

B |-------------------------------------|
F#|-------------------------------------|
D |--------7----10---12----12b~~~~------|
A |-------------------------------------|
E |-0-0-0--5----8----10-----------------|
A |-0-0-0----00---00--------------------|


2nd verse:


B |--------------------------|
F#|--------------------------|
D |--------------------------|
A |--------------------------|
E |-0-0-0--1h2-2p1-----------|
A |-0-0-0--1h2-2p1-----------|



Chorus:

B |-------------------------------------|
F#|-------------------------------------|
D |--------7----10---12-----------------|
A |-------------------------------------|
E |-0-0-0--5----8----10--22222/666666---|
A |-0-0-0----00---00-----22222/666666---|

B |-------------------------------------|
F#|-------------------------------------|
D |--------7----10---12---12~~~~--------|
A |-------------------------------------|
E |-0-0-0--5----8----10-----------------|
A |-0-0-0----00---00--------------------|


Interlude:

B |--------------------------|
F#|--------------------------|
D |--------------------------|
A |----------------3-2---4---|
E |-------4-3----------2---3-|
A |-0-3-2-----4-3------------|

The the heavy part:

B |------------------------------|
F#|------------------------------|
D |------------------------------|
A |------------------2h3p0----4--|
E |-0-3-2-0--4-3------------2---3|
A |-0-3-2-0------4-3-------------|

The back to the chorus:

Chorus:

B |-------------------------------------|
F#|-------------------------------------|
D |--------7----10---12-----------------|
A |-------------------------------------|
E |-0-0-0--5----8----10--22222/666666---|
A |-0-0-0----00---00-----22222/666666---|


B |-------------------------------------|
F#|-------------------------------------|
D |--------7----10---12---12~~~~--------|
A |-------------------------------------|
E |-0-0-0--5----8----10-----------------|
A |-0-0-0----00---00--------------------|



Then there is a different chorus riff:


B |-------------------------------------|
F#|-------------------------------------|
D |--------14----9----10----------------|
A |-------------------------------------|
E |-0-0-0--12----7----8-----22222/666666|
A |-0-0-0-----00---00-------22222/666666|


Then the verse is played again


Both guitars


B |--------------------------|
F#|--------------------------|
D |--------------------------|
A |--------------------------|
E |-0-0-0--1h2-2p1-----------|
A |-0-0-0--1h2-2p1-----------|


B |--------------------------|
F#|--------------------------|
D |--------------------------|
A |---------0--0-1-----------|
E |-0-0-0-0-0--0-1-----------|
A |-0-0-0-0-0--0-1-----------|



Then the intro is played with a flanger:


Guitar 1
B |----------------------|
F#|----------------------|
D |----------------------|
A |----------------------|
E |-0-0-0-0-0------------|
A |-0-0-0-0-0------------|


Guitar 2
B |----------------------------|
F#|----------------------------|
D |----------------------------|
A |----------------------------|
E |-0-0-0-0-0------------------|
A |-0-0-0-0-0--1h2-2p1---------|

Clipes

Cifra Club Pro

Aproveite o Cifra Club com benefícios exclusivos e sem anúncios
7 dias grátis
Cifra Club Pro
Aproveite o Cifra Club com benefícios exclusivos e sem anúncios
7 dias grátis