My Plague

Slipknot

Tom: G
#1t1#Guitar 1
#1t2#B |----------------------|
F#|----------------------|
D |----------------------|
A |----------------------|
E |-0-0-0-0-0------------|
A |-0-0-0-0-0------------|#/1t2##/1t1#

#2t1#Guitar 2
#2t2#B |----------------------------|
F#|----------------------------|
D |----------------------------|
A |----------------------------|
E |-0-0-0-0-0------------------|
A |-0-0-0-0-0--1h2-2p1---------|#/2t2##/2t1#


Verse:

#3t1##3t2#B |--------------------------|
F#|--------------------------|
D |--------------------------|
A |--------------------------|
E |-0-0-0--1h2-2p1-----------|
A |-0-0-0--1h2-2p1-----------|#/3t2##/3t1#



Chorus:
Micky's part.

#4t1##4t2#B |-------------------------------------|
F#|-------------------------------------|
D |--------7----10---12-----------------|
A |-------------------------------------|
E |-0-0-0--5----8----10--22222/666666---|
A |-0-0-0----00---00-----22222/666666---|#/4t2##/4t1#


Jimmy's part

#5t1##5t2#B |-------------------------------------|
F#|-------------------------------------|
D |--------7----10---12----12b~~~~------|
A |-------------------------------------|
E |-0-0-0--5----8----10-----------------|
A |-0-0-0----00---00--------------------|#/5t2##/5t1#


2nd verse:


#6t1##6t2#B |--------------------------|
F#|--------------------------|
D |--------------------------|
A |--------------------------|
E |-0-0-0--1h2-2p1-----------|
A |-0-0-0--1h2-2p1-----------|#/6t2##/6t1#



Chorus:

#7t1##7t2#B |-------------------------------------|
F#|-------------------------------------|
D |--------7----10---12-----------------|
A |-------------------------------------|
E |-0-0-0--5----8----10--22222/666666---|
A |-0-0-0----00---00-----22222/666666---|#/7t2##/7t1#

#8t1##8t2#B |-------------------------------------|
F#|-------------------------------------|
D |--------7----10---12---12~~~~--------|
A |-------------------------------------|
E |-0-0-0--5----8----10-----------------|
A |-0-0-0----00---00--------------------|#/8t2##/8t1#


Interlude:

#9t1##9t2#B |--------------------------|
F#|--------------------------|
D |--------------------------|
A |----------------3-2---4---|
E |-------4-3----------2---3-|
A |-0-3-2-----4-3------------|#/9t2##/9t1#

The the heavy part:

#10t1##10t2#B |------------------------------|
F#|------------------------------|
D |------------------------------|
A |------------------2h3p0----4--|
E |-0-3-2-0--4-3------------2---3|
A |-0-3-2-0------4-3-------------|#/10t2##/10t1#

The back to the chorus:

Chorus:

#11t1##11t2#B |-------------------------------------|
F#|-------------------------------------|
D |--------7----10---12-----------------|
A |-------------------------------------|
E |-0-0-0--5----8----10--22222/666666---|
A |-0-0-0----00---00-----22222/666666---|#/11t2##/11t1#



#12t1##12t2#B |-------------------------------------|
F#|-------------------------------------|
D |--------7----10---12---12~~~~--------|
A |-------------------------------------|
E |-0-0-0--5----8----10-----------------|
A |-0-0-0----00---00--------------------|#/12t2##/12t1#



Then there is a different chorus riff:


#13t1##13t2#B |-------------------------------------|
F#|-------------------------------------|
D |--------14----9----10----------------|
A |-------------------------------------|
E |-0-0-0--12----7----8-----22222/666666|
A |-0-0-0-----00---00-------22222/666666|#/13t2##/13t1#


Then the verse is played again


Both guitars


#14t1##14t2#B |--------------------------|
F#|--------------------------|
D |--------------------------|
A |--------------------------|
E |-0-0-0--1h2-2p1-----------|
A |-0-0-0--1h2-2p1-----------|#/14t2##/14t1#


#15t1##15t2#B |--------------------------|
F#|--------------------------|
D |--------------------------|
A |---------0--0-1-----------|
E |-0-0-0-0-0--0-1-----------|
A |-0-0-0-0-0--0-1-----------|#/15t2##/15t1#



Then the intro is played with a flanger:


#16t1#Guitar 1
#16t2#B |----------------------|
F#|----------------------|
D |----------------------|
A |----------------------|
E |-0-0-0-0-0------------|
A |-0-0-0-0-0------------|#/16t2##/16t1#


#17t1#Guitar 2
#17t2#B |----------------------------|
F#|----------------------------|
D |----------------------------|
A |----------------------------|
E |-0-0-0-0-0------------------|
A |-0-0-0-0-0--1h2-2p1---------|#/17t2##/17t1#
Composição: SlipknotColaboração e revisão: gustavo marquesLucas Loureiro