New Abortion

Slipknot

Tom: G
Afinação A E A D F# B

#1t1#intro
#1t2#-------------------------------------------------------------------------------|
-------------------------------------------------------------------------------|
-------------------------------------------------------------------------------|
0-0-0--------------------------------------------------------------------------|
0-0-0--------------------------------------------------------------------------|
0-0-0---0-0-0-0--0-0-0-0--0-0-0-0--0-0-0-0--0-0-0-0--0-0-0-0--0-0-0-0--0-0-0-0-|#/1t2##/1t1#

P.M..........................................................................


Guitar 1
(Fig. 2)
#2t1##2t2#---------------------------------------------------|
---------------------------------------------------|
---------------------------------------------------|
---------------------------------------------------|
---------------------------------------------------|
-0-0-1-0-2h3-0-1--0-0-1h2-0-0-6p5------------------|#/2t2##/2t1#


Guitar 2
(Fig. 2)
#3t1##3t2#-------------------------------------------|
-------------------------------------------|
-------------------------------------------|
-0-0-0--0-0-0--0-0-0--0-0-0----------------|
-0-0-0--0-0-0--0-0-0--0-0-0----------------|
-0-0-0--0-0-0--0-0-0--0-0-0----------------|#/3t2##/3t1#


#4t1#Cory screams..
#4t2#---------------------------------------------------|
---------------------------------------------------|
---------------------------------------------------|
---------------------------------------------------|
-0-0-1-0-2h3-0-1--0-0-1h2-0-0-6p5------------------|
-0-0-1-0-2h3-0-1--0-0-1h2-0-0-6p5------------------|#/4t2##/4t1#


#5t1##5t2#---------------------------------------------|
---------------------------------------------|
-*14B*--*12B*--------------------------------|  x4
---------------------------------------------|
---------------------------------------------|
---------------------------------------------|#/5t2##/5t1#


#6t1##6t2#---------------------------------------------------|
---------------------------------------------------|
---------------------------------------------------|
-0-0-1-0-2h3-0-1--0-0-1h2-0-0-6p5------------------|
---------------------------------------------------|
---------------------------------------------------|#/6t2##/6t1#


#7t1##7t2#---------------------------------------------------|
---------------------------------------------------|
---------------------------------------------------|
---------------------------------------------------|
---------------------------------------------------|
-0-0-1-0-2h3-0-1--0-0-1h2-0-0-6p5------------------|#/7t2##/7t1#


Guitar 2
(Fig. 2)
#8t1##8t2#-------------------------------------------|
-------------------------------------------|
-------------------------------------------|
-0-0-0--0-0-0--0-0-0--0-0-0----------------|
-0-0-0--0-0-0--0-0-0--0-0-0----------------|
-0-0-0--0-0-0--0-0-0--0-0-0----------------|#/8t2##/8t1#



Everywhere you look it's like they know...
(Fig 3)
Guitar 1
#9t1##9t2#-----------------------------|-------------------------------|
-----------------------------|-------------------------------|
-----------------------------|-------------------------------|
-----------------------------|-------------------------------|
-----------------------------|-------------------------------|#/9t2##/9t1#
*2RB* *2RB*-*2RB* *2RB*------|-*2BR*--*2BR*--*2BR*--*2BR*----|


Guitar 2

#10t1##10t2#------------------------------------------------
------------------------------------------------
------------------------------------------------
------------------------------------------------
-6-6-6--5-5-5-5-5-3-0---------------------------
-6-6-6--5-5-5-5-5-3-0-0-0-0-0-0-0-0-0-0-0-------#/10t2##/10t1#



You can't take my soul away from me!

#11t1##11t2#-----------------------------|
-----------------------------|
-----------------------------|
-5~~~~~~~~~~~~~--------------|
-----------------------------|
-----------------------------|#/11t2##/11t1#


#12t1##12t2#---------------------------------------------------|
---------------------------------------------------|
---------------------------------------------------|
---------------------------------------------------|
-0-0-1-0-2h3-0-1--0-0-1h2-0-0-6p5------------------|
-0-0-1-0-2h3-0-1--0-0-1h2-0-0-6p5------------------|#/12t2##/12t1#


#13t1##13t2#---------------------------------------------|
---------------------------------------------|
-*14B*--*12B*--------------------------------|  x4
---------------------------------------------|
---------------------------------------------|
---------------------------------------------|#/13t2##/13t1#

#14t1##14t2#---------------------------------------------------|
---------------------------------------------------|
---------------------------------------------------|
-0-0-1-0-2h3-0-1--0-0-1h2-0-0-6p5------------------|
---------------------------------------------------|
---------------------------------------------------|#/14t2##/14t1#

What do you need to see? you feel the impact? gotta retract everybody get back!
What is this? it's like a great conspiracy fields of dejected, morbid progeny

#15t1##15t2#------------------------------------------------
------------------------------------------------
------------------------------------------------
------------------------------------------------
------------------------------------------------
-0-0-2-2-2-2-2-0-4-4-4-4-4-0-5-5-5-5-5-5-5------#/15t2##/15t1#

#16t1##16t2#--------------------------------------------------
--------------------------------------------------
--------------------------------------------------
--------------------------------------------------
-2--1--0--0--2--0--4--0--5------------------------
-2--1--0--0--2--0--4--0--5------------------------
-#/16t2##/16t1#
#17t1##17t2#-------------------------
-------------------------
-------------------------
-------------------------
3--2--1--0--2--0--4--0--5
3--2--1--0--2--0--4--0--5#/17t2##/17t1#

(Fig 3)
Guitar 1
#18t1##18t2#-----------------------------|-------------------------------|
-----------------------------|-------------------------------|
-----------------------------|-------------------------------|
-----------------------------|-------------------------------|
-----------------------------|-------------------------------|#/18t2##/18t1#
*2RB* *2RB*-*2RB* *2RB*------|-*2BR*--*2BR*--*2BR*--*2BR*----|


Guitar 2

#19t1##19t2#------------------------------------------------
------------------------------------------------
------------------------------------------------
------------------------------------------------
-6-6-6--5-5-5-5-5-3-0---------------------------
-6-6-6--5-5-5-5-5-3-0-0-0-0-0-0-0-0-0-0-0-------#/19t2##/19t1#




#20t1##20t2#-----------------------------|
-----------------------------|
-----------------------------|#/20t2##/20t1#
0~~--------------------------|
0~~--------------------------|
0~~--------------------------|


#21t1##21t2#--------------------
--------------------
--------------------
--------------------
--------------------
-2-2-1-2-6-5-1-6/--2#/21t2##/21t1#

#22t1##22t2#------------------------------------------------------
------------------------------------------------------
------------------------------------------------------
-6/h5-5-6/h5-5-6/h5-5-5-5-----------------------------
-6/h5-5-6/h5-5-6/h5-5-5-5-2-2-6-1/7-------------------
-6/h5-5-6/h5-5-6/h5-5-5-5-2-2-6-1/7-------------------#/22t2##/22t1#

#23t1##23t2#------------------------------------------------------
------------------------------------------------------
------------------------------------------------------
------------------------------------------------------
-2-2-1-2-6-5-1/7-2------------------------------------
-2-2-1-2-6-5-1/7-2------------------------------------
P.M.................#/23t2##/23t1#


you cant take my soul away from me.....

#24t1#you cant take my soul away from me......
#24t2#--------------------
--------------------
--------------------
--------------------
--------------------
-2-2-1-2-6-5-1-6/--2#/24t2##/24t1#

#25t1##25t2#--------------------------------------
--------------------------------------
--------------------------------------
-6/h5-5-6/h5-5------------------------
-6/h5-5-6/h5-5--1/7-------------------
-6/h5-5-6/h5-5--1/7-------------------#/25t2##/25t1#

#26t1##26t2#------------------------------------------------------
------------------------------------------------------
------------------------------------------------------
------------------------------------------------------
-2-2-1-2-6-5-1/7-2------------------------------------
-2-2-1-2-6-5-1/7-2------------------------------------#/26t2##/26t1#

#27t1##27t2#------------------------------------------------------
------------------------------------------------------
------------------------------------------------------
------------------------------------------------------
---333333333333333333333333333333333333---------------
------------------------------------------------------#/27t2##/27t1#

(Fig 3)
Guitar 1
#28t1##28t2#-----------------------------|-------------------------------|
-----------------------------|-------------------------------|
-----------------------------|-------------------------------|
-----------------------------|-------------------------------|
-----------------------------|-------------------------------|#/28t2##/28t1#
*2RB* *2RB*-*2RB* *2RB*------|-*2BR*--*2BR*--*2BR*--*2BR*----|


Guitar 2

#29t1##29t2#------------------------------------------------
------------------------------------------------
------------------------------------------------
------------------------------------------------
-6-6-6--5-5-5-5-5-3-0---------------------------
-6-6-6--5-5-5-5-5-3-0-0-0-0-0-0-0-0-0-0-0-------#/29t2##/29t1#


#30t1##30t2#-------------------------------------------|
-------------------------------------------|
-------------------------------------------|
-0-0-0--0-0-0--0-0-0--0-0-0----------------|
-0-0-0--0-0-0--0-0-0--0-0-0----------------|
-0-0-0--0-0-0--0-0-0--0-0-0----------------|#/30t2##/30t1#

#31t1##31t2#---------------------------------------------------------------------------
---------------------------------------------------------------------------
---------------------------------------------------------------------------
-------------------------------------------------------------0-0-0--0-0-0--
-2--1--0--0-------------0------------------------------------0-0-0--0-0-0--
-2--1--0--0--222222222--0--44444444444--0--555555555555------0-0-0--0-0-0--#/31t2##/31t1#
Composição: Colaboração e revisão: gustavo marques