No Life

Slipknot

Ab
234
431114
B
234
X24442
Db
234
X46664
E
123
022100
Gb
234
244322
Tom: G
Afinação(B,F#,B,E,G#,C#) 
Db||---------------------------|---------------------------||
Ab||---------------------------|---------------------------||
E ||*--------------------------|--------------------------*||
B ||*--------------------------|--------------------------*||
Gb||---------------------------|---------------------------||
B ||---6~b--0--6~b--0--0-7-7-0-|--6b---0--6~---0--0-7-7-0--|| introdução
 ....MY FREEDOM IS BEST...

#1t1##1t2#|----------------------------|
|----------------------------|
|*------------------5-5-5-5-*|parte que "estora"
|*--------------------------*|
|---2----0--1----0-----------|
|---2----0--1----0-----------|#/1t2##/1t1#

#2t1#verso
#2t2#---------------------------|--------------------------|parte 1
---------------------------|--------------------------|
---------------------------|--------------------------|
---------------------------|--------------------------|
---------------------------|--------------------------| } 2x..na primeira só o baxo
--2--1--1-1-2--2--1--2--3--|----2--1-1-1--2--1--2--3--| } na segunda a guitarra tbm
                                                        }#/2t2##/2t1#
#3t1##3t2#---------------------------|--------------------------| } 
---------------------------|--------------------------| } 
---------------------------|--------------------------|parte 2
---------------------------|--------------------------|
---------------------------|--------------------------|
--3--2--1-1-2--2--1--2--3--|----2--1-1-1--2--1--2--3--|#/3t2##/3t1#

#4t1##4t2#|---------------------------|
|-------------------n-n-n-n-|  n = harmonico natural
|-------------------5-5-5-5-|
|---------------------------|refrão
|---6----0--4----3----------|
|---6----0--4----3----------|#/4t2##/4t1#

verso denovo
repete 1x parte 1 e depois só a parte 2

refrão

depois do segundo refrão -> 

#5t1##5t2#|---------------------|--------------------|
|---------------------|--------------------|
|---------------------|--------------------|
|---------------------|--------------------|
|------------0--0--0--|-----------0--0--0--|
|---0--1--0--0--0--0--|--0--1--0--0--0--0--|#/5t2##/5t1#


                                                               
#6t1##6t2#--------------------|-------------------||--------------------|
--------------------|-------------------||--------------------|
--------------------|-------------------||--------------------|
--------------------|-------------------||--------------------|
-----------0--0--0--|-------------------||-----------0--0--0--|
--0--1--0--0--0--0--|--0--1--0--4-------||--0--1--0--0--0--0--|#/6t2##/6t1#
                                                     pm pm pm

                                                             
#7t1##7t2#--------------------|--------------------|------------------|
--------------------|--------------------|------------------|
--------------------|--------------------|------------------|
--------------------|--------------------|------------------|
-----------0--0--0--|-----------0--0--0--|-----------0------|
--0--1--0--0--0--0--|--0--1--0--0--0--0--|--0--1--0---------|#/7t2##/7t1#
           pm pm pm             pm pm pm

                                                               
#8t1##8t2#--------------------|--------------------|--------------------|
--------------------|--------------------|--------------------|
--------------------|--------------------|--------------------|
--------------------|--------------------|--------------------|
-----------0--0--0--|-----------0--0--0--|-----------0--0--0--|
--0--1--0--0--0--0--|--0--1--0--0--0--0--|--0--1--0--0--0--0--|#/8t2##/8t1#
           pm pm pm             pm pm pm             pm pm pm

#9t1#                      verso 3..     
#9t2#--------------------||------------------------------|
--------------------||------------------------------|
--------------------||*----------------------------*|
--------------------||*----------------------------*|
--------------------||---2--1--0-0-3--2--0-0-3--3---|
--0--1--0--4--4--4--||---2--1--0-0-3--2--0-0-3--3---|#/9t2##/9t1#

#10t1##10t2#G#--15--16-|-16-18-|-18-|-18-18-|-18-- riff eletronico antes do verso 3...#/10t2##/10t1#

refrão
 
repete intro

page down and i say to you right now
Composição: Colaboração e revisão: