busca

No Life

Slipknot

Tom: C#
Afinação(B,F#,B,E,G#,C#) 
C#||---------------------------|---------------------------||
G#||---------------------------|---------------------------||
E ||*--------------------------|--------------------------*||
B ||*--------------------------|--------------------------*||
F#||---------------------------|---------------------------||
B ||---6~b--0--6~b--0--0-7-7-0-|--6b---0--6~---0--0-7-7-0--|| introdução
 ....MY FREEDOM IS BEST...

|----------------------------|
|----------------------------|
|*------------------5-5-5-5-*|parte que "estora"
|*--------------------------*|
|---2----0--1----0-----------|
|---2----0--1----0-----------|

verso
---------------------------|--------------------------|parte 1
---------------------------|--------------------------|
---------------------------|--------------------------|
---------------------------|--------------------------|
---------------------------|--------------------------| } 2x..na primeira só o baxo
--2--1--1-1-2--2--1--2--3--|----2--1-1-1--2--1--2--3--| } na segunda a guitarra tbm
                                                        }
---------------------------|--------------------------| } 
---------------------------|--------------------------| } 
---------------------------|--------------------------|parte 2
---------------------------|--------------------------|
---------------------------|--------------------------|
--3--2--1-1-2--2--1--2--3--|----2--1-1-1--2--1--2--3--|

|---------------------------|
|-------------------n-n-n-n-|  n = harmonico natural
|-------------------5-5-5-5-|
|---------------------------|refrão
|---6----0--4----3----------|
|---6----0--4----3----------|

verso denovo
repete 1x parte 1 e depois só a parte 2

refrão

depois do segundo refrão -> 

|---------------------|--------------------|
|---------------------|--------------------|
|---------------------|--------------------|
|---------------------|--------------------|
|------------0--0--0--|-----------0--0--0--|
|---0--1--0--0--0--0--|--0--1--0--0--0--0--|


                                                               
--------------------|-------------------||--------------------|
--------------------|-------------------||--------------------|
--------------------|-------------------||--------------------|
--------------------|-------------------||--------------------|
-----------0--0--0--|-------------------||-----------0--0--0--|
--0--1--0--0--0--0--|--0--1--0--4-------||--0--1--0--0--0--0--|
                                                     pm pm pm

                                                             
--------------------|--------------------|------------------|
--------------------|--------------------|------------------|
--------------------|--------------------|------------------|
--------------------|--------------------|------------------|
-----------0--0--0--|-----------0--0--0--|-----------0------|
--0--1--0--0--0--0--|--0--1--0--0--0--0--|--0--1--0---------|
           pm pm pm             pm pm pm

                                                               
--------------------|--------------------|--------------------|
--------------------|--------------------|--------------------|
--------------------|--------------------|--------------------|
--------------------|--------------------|--------------------|
-----------0--0--0--|-----------0--0--0--|-----------0--0--0--|
--0--1--0--0--0--0--|--0--1--0--0--0--0--|--0--1--0--0--0--0--|
           pm pm pm             pm pm pm             pm pm pm

                      verso 3..     
--------------------||------------------------------|
--------------------||------------------------------|
--------------------||*----------------------------*|
--------------------||*----------------------------*|
--------------------||---2--1--0-0-3--2--0-0-3--3---|
--0--1--0--4--4--4--||---2--1--0-0-3--2--0-0-3--3---|

G#--15--16-|-16-18-|-18-|-18-18-|-18-- riff eletronico antes do verso 3...

refrão
 
repete intro

page down and i say to you right now

Clipes

Cifra Club Pro

Aproveite o Cifra Club com benefícios exclusivos e sem anúncios
7 dias grátis
Cifra Club Pro
Aproveite o Cifra Club com benefícios exclusivos e sem anúncios
7 dias grátis