busca

Only One

Slipknot

Tom: D
Afinação(D,A,D,G,B,E)

D|-0--3-2-1-0--4-3-1-3-
A|-0--3-2-1-0--4-3-1-3-
D|-0--3-2-1-0--4-3-1-3-

D|-3-2-0-1-0
A|-3-2-0-1-0
D|-3-2-0-1-0

e|-3/5-3/5-xxxxxxxx
b|-3/5-3/5-xxxxxxxx
G|-3/5-3/5-xxxxxxxx

D|-1-0-0-2-3-
A|-1-0-0-2-3-
D|-1-0-0-2-3-

D|-1-0--------
A|-1-0--1-3-1-
D|-1-0--------

D|-x-x-x-x-x-x-x-x-
A|-x-x-x-x-x-x-x-x-
D|-x-x-x-x-x-x-x-x-

Clipes

Cifra Club Pro

Aproveite o Cifra Club com benefícios exclusivos e sem anúncios
Cifra Club Pro
Aproveite o Cifra Club com benefícios exclusivos e sem anúncios