People = Shit

Slipknot

B
234
X24442
C
123
X32010
D
123
XX0232
F
234
133211
G
123
320003
Tom: G
Artista: Slipknot
Titulo: People=Shit
Album: Iowa

Afinação - B F# B E G# C#

Riff A - 216 bpm

#1t1##1t2#C#|--------------------------------------------------------------------|
G#|--------------------------------------------------------------------|
E |--------------------------------------------------------------------|
B |--------------------------------------------------------------------|
F#|(6\5)-----(3\2)-----(6\5)-----(3\2)-----0-0-0-0---------------------|
B |(6\5)-0-0-(3\2)-0-0-(6\5)-0-0-(3\2)-0-0-0-0-0-0---------------------|
         * *       * *       * *       * * * * * *#/1t2##/1t1#

Riff B

#2t1##2t2#C#|--------------------------------------------------------------------|
G#|--------------------------------------------------------------------|
E |--------------------------------------------------------------------|
B |--------------------------------------------------------------------| palhetando bem varias vezes cada nota
F#|------------2--3-----2---5--6--------2--3-----2---------------------|
B |0--1--0--1--------2------------0--1--------2------------------------|
   \  \  \  \  \  \  \  \   \  \  \  \  \  \  \  \#/2t2##/2t1#

Riff C

Guitar 2

#3t1##3t2#C#|---(16\18)~------(16\18)~--16\--------------------------------------|
G#|--------------------------------------------------------------------|
E |--------------------------------------------------------------------|
B |--------------------------------------------------------------------|
F#|--------------------------------------------------------------------|
B |1------------1-----------------1-0----------------------------------|#/3t2##/3t1#

repete riff b 2x e no fim

Guitar 1
Riff D


#4t1##4t2#C#|--------|
G#|--------|
E |--------|
B |--------|
F#|--------|
B |5~------|
   +#/4t2##/4t1#

Guitar 1

#5t1##5t2#C#|--------------------------------------------------------------------|
G#|--------------------------------------------------------------------|
E |--------------------------------------------------------------------|
B |--------------------------------------------------------------------|
F#|--------------------------------------------------------------------|
B |17\-0-1-1-0-0H1--0-1-1-0\5--0-1-1-0-0H1--0-1-1-0\5------------------|#/5t2##/5t1#


Riff E - Is Riff D Guitar 1 but with both Guitars

Riff F

Guitars 1 and 2

#6t1##6t2#C#|--------------------------------------------------------------------|
G#|--------------------------------------------------------------------|
E |--------------------------------------------------------------------|
B |--------------------------------------------------------------------|
F#|0-1-1-0-0H1--0-1-1-0\5---0-1-1-0-0H1--0-1-1-0\5---------------------|
B |0-1-1-0-0H1--0-1-1-0\5---0-1-1-0-0H1--0-1-1-0\5---------------------|#/6t2##/6t1#

Riff G

Guitars 1 and 2

#7t1##7t2#C#|--------------------------------------------------------------------|
G#|--------------------------------------------------------------------|
E |--------------------------------------------------------------------|
B |--------------------------------------------------------------------|
F#|--------------------------------------------------------------------|
B |0-1-1-0-0H1--0-0-3-3--0-0-1-1--0-0-4-3--0-0\6-6-5-5-----------------|#/7t2##/7t1#

Riff H

Guitar 3 - This is Sampled but I tabbed it anyway.

#8t1##8t2#C#|--10---11------------10---11----------------------------------------|
G#|------------12--11--------------------------------------------------|
E |--------------------------------------------------------------------|palhetando varias vezes cada nota
B |--------------------------------------------------------------------|
F#|--------------------------------------------------------------------|
B |--------------------------------------------------------------------|
     \    \    \   \    \    \#/8t2##/8t1#

#9t1##9t2#C#|--------------------------------------------------------------------|
G#|--------------------------------------------------------------------|
E |--------------------------------------------------------------------|
B |--------------------------------------------------------------------|
F#|--------------------------------------------------------------------|
B |7-0-8\1-1--4-4---7-0-8\1-1--4-4-------------------------------------|#/9t2##/9t1#


Guitar 1

#10t1##10t2#C#|--------------------------------------------------------------------|
G#|--------------------------------------------------------------------|
E |--------------------------------------------------------------------|
B |--------------------------------------------------------------------|
F#|------------0-------------0-------------0---------------------------|
B |0-0-1---4-4---1-1-1--4-4-----0-0-1--4-4---1-1--1--------------------|#/10t2##/10t1#

Riff I

Guitars 1 and 2

#11t1##11t2#C#|--------------------------------------------------------------------|
G#|--------------------------------------------------------------------|
E |--------------------------------------------------------------------|
B |--------------------------------------------------------------------|
F#|0-1-1-0-0H1--1-1-1-0---0-0-0-1---0-0-0-0---0-0-0--5-----------------|
B |0-1-1-0-0H1--1-1-1-0---0-0-0-1---0-0-0-0---0-0-0--5-----------------|#/11t2##/11t1#

#12t1##12t2#C#|--------------------------------------------------------------------|
G#|--------------------------------------------------------------------|
E |--------------------------------------------------------------------|
B |--------------------------------------------------------------------|
F#|0-1-1-0-0H1--1-1-1-0---0-0--0-1-------------------------------------|
B |0-1-1-0-0H1--1-1-1-0---0-0--0-1---x\--------------------------------|#/12t2##/12t1#

Riff J

Guitar 1 and 2

#13t1##13t2#C#|--------------------------------------------------------------------|
G#|--------------------------------------------------------------------|
E |--------------------------------------------------------------------|
B |--------------------------------------------------------------------|
F#|7-0-8\1-1-4-4---7-0-8\1-1-4-4---7-0-8\1-1-4-4---7-0-8\1-1-4-4-------|
B |7-0-8\1-1-4-4---7-0-8\1-1-4-4---7-0-8\1-1-4-4---7-0-8\1-1-4-4-------|#/13t2##/13t1#

Riff K

Guitar 1, then Guitar 2 starts second time.

#14t1##14t2#C#|--------------------------------------------------------------------|
G#|--------------------------------------------------------------------|
E |--------------------------------------------------------------------|
B |--------------------------------------------------------------------|
F#|17\--0-0--0-0--0-0--0-0--1-1-1--------------------------------------|
B |17\--0-0--0-0--0-0--0-0--1-1-1--------------------------------------|#/14t2##/14t1#

Riff L

Guitars 1 and 2

#15t1##15t2#C#|--------------------------------------------------------------------|
G#|--------------------------------------------------------------------|
E |--------------------------------------------------------------------|
B |--------------------------------------------------------------------|
F#|1-1--1-1--1-1--2-2---1-1--1-1--2-2--4-4-----------------------------|
B |1-1--1-1--1-1--2-2---1-1--1-1--2-2--4-4-----------------------------|#/15t2##/15t1#

Riff M

#16t1##16t2#C#|--------------------------------------------------------------------|
G#|--------------------------------------------------------------------|
E |--------------------------------------------------------------------|
B |--------------------------------------------------------------------|
F#|--------------------------------------------------------------------|
B |7-0-8\1-1--4-4---7-0-8\1-1--4-4-------------------------------------|#/16t2##/16t1#

Riff N - As above but Palm Muted

final


#17t1##17t2#C#|--------------------------------------------------------------------|
G#|--------------------------------------------------------------------|
E |--------------------------------------------------------------------|
B |--------------------------------------------------------------------|
F#|(6\5)-----(3\2)-----(6\5)-----(3\2)-------0--0---0------------------|
B |(6\5)-0-0-(3\2)-0-0-(6\5)-0-0-(3\2)-0-0---0--0---0------------------|#/17t2##/17t1#
Composição: SlipknotColaboração e revisão: gustavo marques