busca

People = Shit

Slipknot

Tom: E
Artista: Slipknot
Titulo: People=Shit
Album: Iowa

Afinação - B F# B E G# C#

Riff A - 216 bpm

C#|--------------------------------------------------------------------|
G#|--------------------------------------------------------------------|
E |--------------------------------------------------------------------|
B |--------------------------------------------------------------------|
F#|(6\5)-----(3\2)-----(6\5)-----(3\2)-----0-0-0-0---------------------|
B |(6\5)-0-0-(3\2)-0-0-(6\5)-0-0-(3\2)-0-0-0-0-0-0---------------------|
         * *       * *       * *       * * * * * *

Riff B

C#|--------------------------------------------------------------------|
G#|--------------------------------------------------------------------|
E |--------------------------------------------------------------------|
B |--------------------------------------------------------------------| palhetando bem varias vezes cada nota
F#|------------2--3-----2---5--6--------2--3-----2---------------------|
B |0--1--0--1--------2------------0--1--------2------------------------|
   \  \  \  \  \  \  \  \   \  \  \  \  \  \  \  \

Riff C

Guitar 2

C#|---(16\18)~------(16\18)~--16\--------------------------------------|
G#|--------------------------------------------------------------------|
E |--------------------------------------------------------------------|
B |--------------------------------------------------------------------|
F#|--------------------------------------------------------------------|
B |1------------1-----------------1-0----------------------------------|

repete riff b 2x e no fim

Guitar 1
Riff D


C#|--------|
G#|--------|
E |--------|
B |--------|
F#|--------|
B |5~------|
   +

Guitar 1

C#|--------------------------------------------------------------------|
G#|--------------------------------------------------------------------|
E |--------------------------------------------------------------------|
B |--------------------------------------------------------------------|
F#|--------------------------------------------------------------------|
B |17\-0-1-1-0-0H1--0-1-1-0\5--0-1-1-0-0H1--0-1-1-0\5------------------|


Riff E - Is Riff D Guitar 1 but with both Guitars

Riff F

Guitars 1 and 2

C#|--------------------------------------------------------------------|
G#|--------------------------------------------------------------------|
E |--------------------------------------------------------------------|
B |--------------------------------------------------------------------|
F#|0-1-1-0-0H1--0-1-1-0\5---0-1-1-0-0H1--0-1-1-0\5---------------------|
B |0-1-1-0-0H1--0-1-1-0\5---0-1-1-0-0H1--0-1-1-0\5---------------------|

Riff G

Guitars 1 and 2

C#|--------------------------------------------------------------------|
G#|--------------------------------------------------------------------|
E |--------------------------------------------------------------------|
B |--------------------------------------------------------------------|
F#|--------------------------------------------------------------------|
B |0-1-1-0-0H1--0-0-3-3--0-0-1-1--0-0-4-3--0-0\6-6-5-5-----------------|

Riff H

Guitar 3 - This is Sampled but I tabbed it anyway.

C#|--10---11------------10---11----------------------------------------|
G#|------------12--11--------------------------------------------------|
E |--------------------------------------------------------------------|palhetando varias vezes cada nota
B |--------------------------------------------------------------------|
F#|--------------------------------------------------------------------|
B |--------------------------------------------------------------------|
     \    \    \   \    \    \

C#|--------------------------------------------------------------------|
G#|--------------------------------------------------------------------|
E |--------------------------------------------------------------------|
B |--------------------------------------------------------------------|
F#|--------------------------------------------------------------------|
B |7-0-8\1-1--4-4---7-0-8\1-1--4-4-------------------------------------|


Guitar 1

C#|--------------------------------------------------------------------|
G#|--------------------------------------------------------------------|
E |--------------------------------------------------------------------|
B |--------------------------------------------------------------------|
F#|------------0-------------0-------------0---------------------------|
B |0-0-1---4-4---1-1-1--4-4-----0-0-1--4-4---1-1--1--------------------|

Riff I

Guitars 1 and 2

C#|--------------------------------------------------------------------|
G#|--------------------------------------------------------------------|
E |--------------------------------------------------------------------|
B |--------------------------------------------------------------------|
F#|0-1-1-0-0H1--1-1-1-0---0-0-0-1---0-0-0-0---0-0-0--5-----------------|
B |0-1-1-0-0H1--1-1-1-0---0-0-0-1---0-0-0-0---0-0-0--5-----------------|

C#|--------------------------------------------------------------------|
G#|--------------------------------------------------------------------|
E |--------------------------------------------------------------------|
B |--------------------------------------------------------------------|
F#|0-1-1-0-0H1--1-1-1-0---0-0--0-1-------------------------------------|
B |0-1-1-0-0H1--1-1-1-0---0-0--0-1---x\--------------------------------|

Riff J

Guitar 1 and 2

C#|--------------------------------------------------------------------|
G#|--------------------------------------------------------------------|
E |--------------------------------------------------------------------|
B |--------------------------------------------------------------------|
F#|7-0-8\1-1-4-4---7-0-8\1-1-4-4---7-0-8\1-1-4-4---7-0-8\1-1-4-4-------|
B |7-0-8\1-1-4-4---7-0-8\1-1-4-4---7-0-8\1-1-4-4---7-0-8\1-1-4-4-------|

Riff K

Guitar 1, then Guitar 2 starts second time.

C#|--------------------------------------------------------------------|
G#|--------------------------------------------------------------------|
E |--------------------------------------------------------------------|
B |--------------------------------------------------------------------|
F#|17\--0-0--0-0--0-0--0-0--1-1-1--------------------------------------|
B |17\--0-0--0-0--0-0--0-0--1-1-1--------------------------------------|

Riff L

Guitars 1 and 2

C#|--------------------------------------------------------------------|
G#|--------------------------------------------------------------------|
E |--------------------------------------------------------------------|
B |--------------------------------------------------------------------|
F#|1-1--1-1--1-1--2-2---1-1--1-1--2-2--4-4-----------------------------|
B |1-1--1-1--1-1--2-2---1-1--1-1--2-2--4-4-----------------------------|

Riff M

C#|--------------------------------------------------------------------|
G#|--------------------------------------------------------------------|
E |--------------------------------------------------------------------|
B |--------------------------------------------------------------------|
F#|--------------------------------------------------------------------|
B |7-0-8\1-1--4-4---7-0-8\1-1--4-4-------------------------------------|

Riff N - As above but Palm Muted

final


C#|--------------------------------------------------------------------|
G#|--------------------------------------------------------------------|
E |--------------------------------------------------------------------|
B |--------------------------------------------------------------------|
F#|(6\5)-----(3\2)-----(6\5)-----(3\2)-------0--0---0------------------|
B |(6\5)-0-0-(3\2)-0-0-(6\5)-0-0-(3\2)-0-0---0--0---0------------------|

Clipes

Cifra Club Pro

Aproveite o Cifra Club com benefícios exclusivos e sem anúncios
7 dias grátis
Cifra Club Pro
Aproveite o Cifra Club com benefícios exclusivos e sem anúncios
7 dias grátis