Power Rangers theme

Slipknot

Tom: G
Intro:
(Guitar 1)
#1t1##1t2#e|---------------------------|
B|---------------------------|
G|----9----9----9----9--9\10-|
D|----9----9----9----9--9\10-| x4
A|----7----7----7----7--7\8--|
D|-00---00---00---00---------|
PM xx   xx   xx   xx#/1t2##/1t1#

Tapping Sequence:
(Guitar 1)
#2t1##2t2#e|----------|   |-----------|   |----------|   |----------|   |----------|
B|----------|   |-----------|   |--12p7p4--|   |--12p9p5--|   |--13p8p5--|
G|--12p9p5--|x4 |--14p11p7--|x4 |----------|x4 |----------|x4 |----------|x6
D|----------|   |-----------|   |----------|   |----------|   |----------|
A|----------|   |-----------|   |----------|   |----------|   |----------|
D|----------|   |-----------|   |----------|   |----------|   |----------|#/2t2##/2t1#

#3t1##3t2#e|--------|
B|-t12~~~~|
G|--------|
D|--------|
A|--------|
D|--------|#/3t2##/3t1#

Main Theme: {Part 1):
(Guitar 1)
#4t1##4t2#e|-----19-17------------19-17--------|
B|--17-------19-20---17-------20-19--|
G|-----------------------------------|x2
D|-----------------------------------|
A|-----------------------------------|
D|-----------------------------------|#/4t2##/4t1#

#5t1#(Guitar 2)
#5t2#e|----------------------------------------------------------|
B|----------------------------------------------------------|
G|--99-9-99-9-99-9-99-9-99-9--55-5-55-5-5-5--77-7-77-7-7-7--| x2
D|--99-9-99-9-99-9-99-9-99-9--55-5-55-5-5-5--77-7-77-7-7-7--|
A|--77-7-77-7-77-7-77-7-77-7--33-3-33-3-3-3--55-5-55-5-5-5--|
D|----------------------------------------------------------|
PM  xx   xx   xx   xx   xx    xx   xx   x    xx   xx   x#/5t2##/5t1#

Main Theme: (Part 2)
(Guitar 1)
#6t1##6t2#e|-21~~~~~~~|
B|----------|
G|----------|
D|----------|
A|----------|
D|----------|#/6t2##/6t1#

#7t1#(Guitar 2)
#7t2#e|-----------------------------------------------------------------|
B|-----------------------------------------------------------------|
G|--1010-10-1010-10-1010-10-1010-10-1010-10--1111111111111111111111|
D|--1010-10-1010-10-1010-10-1010-10-1010-10--1111111111111111111111|
A|--8-8--8--8-8--8--8-8--8--8-8--8--8-8--8---9-9-9-9-9-9-9-9-9-9-9-|
D|-----------------------------------------------------------------|
PM  x x     x x     x x     x x     x x#/7t2##/7t1#

#8t1#(Guitar 1)
#8t2#e|----------------------|
B|----------------------|
G|--99-9-9-99-9-9-9-9-9-|x2
D|--99-9-9-99-9-9-9-9-9-|
A|--77-7-7-77-7-7-7-7-7-|
D|----------------------|
PM  xx     xx     x#/8t2##/8t1#

Noise Build:
(Guitar 1)
#9t1##9t2#e|-------------------------|
B|-------------------------|
G|--9-10-11-12-13-14-15-16-|
D|--9-10-11-12-13-14-15-16-|
A|--7-8--9--10-11-12-13-14-|
D|-------------------------|#/9t2##/9t1#

Main Theme: {Part 1):
(Guitar 1)
#10t1##10t2#e|-----19-17------------19-17--------|
B|--17-------19-20---17-------20-19--|
G|-----------------------------------|x2
D|-----------------------------------|
A|-----------------------------------|
D|-----------------------------------|#/10t2##/10t1#

#11t1#(Guitar 2)
#11t2#e|----------------------------------------------------------|
B|----------------------------------------------------------|
G|--99-9-99-9-99-9-99-9-99-9--55-5-55-5-5-5--77-7-77-7-7-7--| x2
D|--99-9-99-9-99-9-99-9-99-9--55-5-55-5-5-5--77-7-77-7-7-7--|
A|--77-7-77-7-77-7-77-7-77-7--33-3-33-3-3-3--55-5-55-5-5-5--|
D|----------------------------------------------------------|
PM  xx   xx   xx   xx   xx    xx   xx   x    xx   xx   x#/11t2##/11t1#

Main Theme: (Part 2)
(Guitar 1)
#12t1##12t2#e|-21~~~~~~~|
B|----------|
G|----------|
D|----------|
A|----------|
D|----------|#/12t2##/12t1#

#13t1#(Guitar 2)
#13t2#e|--------------------------------------------------|
B|--------------------------------------------------|
G|--10101010101010101010101010101010101010101010-9/-|
D|--10101010101010101010101010101010101010101010-9/-|
A|--8-8-8-8-8-8-8-8-8-8-8-8-8-8-8-8-8-8-8-8-8-8--7/-|
D|--------------------------------------------------|#/13t2##/13t1#
Composição: Jay Weinberg / Mick Thomson / Sid Wilson / Alessandro Venturella / Allan Rock / Anders Colsefni / Chris Fehn / Corey Taylor / Craig Jones / James Root / Jim Root / Joey Jordison / Josh Brainard / M. Shawn Crahan / Mick Thomson / Paul Gray / Ritch Ronnan / Shawn Crahan / Sid Wilson / Slipknot / Slipknot feat Linkin ParkColaboração e revisão: joão barros