busca

Power Rangers theme

Slipknot

Tom: E
Intro:
(Guitar 1)
e|---------------------------|
B|---------------------------|
G|----9----9----9----9--9\10-|
D|----9----9----9----9--9\10-| x4
A|----7----7----7----7--7\8--|
D|-00---00---00---00---------|
PM xx   xx   xx   xx

Tapping Sequence:
(Guitar 1)
e|----------|   |-----------|   |----------|   |----------|   |----------|
B|----------|   |-----------|   |--12p7p4--|   |--12p9p5--|   |--13p8p5--|
G|--12p9p5--|x4 |--14p11p7--|x4 |----------|x4 |----------|x4 |----------|x6
D|----------|   |-----------|   |----------|   |----------|   |----------|
A|----------|   |-----------|   |----------|   |----------|   |----------|
D|----------|   |-----------|   |----------|   |----------|   |----------|

e|--------|
B|-t12~~~~|
G|--------|
D|--------|
A|--------|
D|--------|

Main Theme: {Part 1):
(Guitar 1)
e|-----19-17------------19-17--------|
B|--17-------19-20---17-------20-19--|
G|-----------------------------------|x2
D|-----------------------------------|
A|-----------------------------------|
D|-----------------------------------|

(Guitar 2)
e|----------------------------------------------------------|
B|----------------------------------------------------------|
G|--99-9-99-9-99-9-99-9-99-9--55-5-55-5-5-5--77-7-77-7-7-7--| x2
D|--99-9-99-9-99-9-99-9-99-9--55-5-55-5-5-5--77-7-77-7-7-7--|
A|--77-7-77-7-77-7-77-7-77-7--33-3-33-3-3-3--55-5-55-5-5-5--|
D|----------------------------------------------------------|
PM  xx   xx   xx   xx   xx    xx   xx   x    xx   xx   x

Main Theme: (Part 2)
(Guitar 1)
e|-21~~~~~~~|
B|----------|
G|----------|
D|----------|
A|----------|
D|----------|

(Guitar 2)
e|-----------------------------------------------------------------|
B|-----------------------------------------------------------------|
G|--1010-10-1010-10-1010-10-1010-10-1010-10--1111111111111111111111|
D|--1010-10-1010-10-1010-10-1010-10-1010-10--1111111111111111111111|
A|--8-8--8--8-8--8--8-8--8--8-8--8--8-8--8---9-9-9-9-9-9-9-9-9-9-9-|
D|-----------------------------------------------------------------|
PM  x x     x x     x x     x x     x x

(Guitar 1)
e|----------------------|
B|----------------------|
G|--99-9-9-99-9-9-9-9-9-|x2
D|--99-9-9-99-9-9-9-9-9-|
A|--77-7-7-77-7-7-7-7-7-|
D|----------------------|
PM  xx     xx     x

Noise Build:
(Guitar 1)
e|-------------------------|
B|-------------------------|
G|--9-10-11-12-13-14-15-16-|
D|--9-10-11-12-13-14-15-16-|
A|--7-8--9--10-11-12-13-14-|
D|-------------------------|

Main Theme: {Part 1):
(Guitar 1)
e|-----19-17------------19-17--------|
B|--17-------19-20---17-------20-19--|
G|-----------------------------------|x2
D|-----------------------------------|
A|-----------------------------------|
D|-----------------------------------|

(Guitar 2)
e|----------------------------------------------------------|
B|----------------------------------------------------------|
G|--99-9-99-9-99-9-99-9-99-9--55-5-55-5-5-5--77-7-77-7-7-7--| x2
D|--99-9-99-9-99-9-99-9-99-9--55-5-55-5-5-5--77-7-77-7-7-7--|
A|--77-7-77-7-77-7-77-7-77-7--33-3-33-3-3-3--55-5-55-5-5-5--|
D|----------------------------------------------------------|
PM  xx   xx   xx   xx   xx    xx   xx   x    xx   xx   x

Main Theme: (Part 2)
(Guitar 1)
e|-21~~~~~~~|
B|----------|
G|----------|
D|----------|
A|----------|
D|----------|

(Guitar 2)
e|--------------------------------------------------|
B|--------------------------------------------------|
G|--10101010101010101010101010101010101010101010-9/-|
D|--10101010101010101010101010101010101010101010-9/-|
A|--8-8-8-8-8-8-8-8-8-8-8-8-8-8-8-8-8-8-8-8-8-8--7/-|
D|--------------------------------------------------|

Clipes

Cifra Club Pro

Aproveite o Cifra Club com benefícios exclusivos e sem anúncios
Cifra Club Pro
Aproveite o Cifra Club com benefícios exclusivos e sem anúncios