busca

Prosthetics

Slipknot

Tom: E
Afinação(B,F#,B,E,G#,C#)


B |-7---0---0x------| 
F#|-7---0---0x------| 
B |-7---0---0x------| 
    1 + 2 + 3 + 4 + 

 

C#|-17--17--17--17--| 
G#|---15--15--15--15| 4x 
E |-----------------| 
    1 + 2 + 3 + 4 + 

C#|-18--18--18--18--| 
G#|---15--15--15--15| 4x 
E |-----------------| 
    1 + 2 + 3 + 4 + 



C#|---|   |-0-| 
G#|-3-| + |-4-|   
E |-7-|   |-8-| 

 

B |-0x----0-0-1-0---| 
    1 + 2 + 3 + 4 + 

 
 
B |-0x----0-0-1-0---| 
F#|-0x----0-0-1-0---| 
B |-0x----0-0-1-0---| 
    1 + 2 + 3 + 4 + 

 

B |-8---7---1-------|-----------------| 
F#|-8---7---1-------|-----------------| 
B |-8---7---1-------|-----------------| 
    1 + 2 + 3 + 4 +   1 + 2 + 3 + 4 +  

 

F#|-----------------| 
B |-4-3-0-0-1-2-0-0-| 

 

B |-4-3-0-0-1-2-0-0-| 
F#|-4-3-0-0-1-2-0-0-| 
B |-4-3-0-0-1-2-0-0-| 

 

B |-4---3---| 
F#|-4---3---| 
B |-4---3---| 

Clipes

Cifra Club Pro

Aproveite o Cifra Club com benefícios exclusivos e sem anúncios
Cifra Club Pro
Aproveite o Cifra Club com benefícios exclusivos e sem anúncios