Psychosocial

Slipknot

Ab5
134
466XXX
Bb5
134
X133XX
C5
134
X355XX
Eb5
134
X688XX
G5
134
355XXX
Tom: G
Afinação: A  E  A  D  F#  B
Introdução:

(Guitarra 1 - Parte 1)

#1t1#               H.A                          H.A
#1t2#B|---------------------------------------------------
F|---------------------------------------------------
D|---------------------------------------------------
A|-------------6~~--------------------------6~~------
E|---------------------------------------------------
A|-0--0--5p0-0------0--3h5-0--0-0-0-0-5p0-0----------#/1t2##/1t1#
#2t1#                      H.A
#2t2#B|---------------------------------------------------
F|---------------------------------------------------
D|---------------------------------------------------
A|--------------------6~~----------------------------
E|---------------------------------------------------
A|-0—3h5-----0-5p0-0-----0-3h5-0-0-5-5-5-5-6-6-6-6---#/2t2##/2t1#

#3t1##3t2#B|---------------------------------------------------
F|---------------------------------------------------
D|---------------------------------------------------
A|---------------------------------------------------
E|---------------------------------------------------
A|-8-8-8-8-7-7-7-7-----------------------------------#/3t2##/3t1#
#4t1#               H.A                          H.A
#4t2#B|---------------------------------------------------
F|---------------------------------------------------
D|---------------------------------------------------
A|-------------6~~--------------------------6~~------
E|---------------------------------------------------
A|-0--0--5p0-0------0--3h5-0--0-0-0-0-5p0-0----------#/4t2##/4t1#
#5t1#                      H.A
#5t2#B|---------------------------------------------------
F|---------------------------------------------------
D|---------------------------------------------------
A|--------------------6~~----------------------------
E|---------------------------------------------------
A|-0—3h5-----0-5p0-0-----0-3h5-0-0-5-5-5-5-6-6-6-6---#/5t2##/5t1#

#6t1##6t2#B|---------------------------------------------------
F|---------------------------------------------------
D|---------------------------------------------------
A|---------------------------------------------------
E|---------------------------------------------------
A|-8-8-8-8-7-7-7-7-5-5-5-5-6-6-6-6-8-8-8-8-7-7-7-7---#/6t2##/6t1#

#7t1##7t2#B|---------------------------------------------------
F|---------------------------------------------------
D|---------------------------------------------------
A|---------------------------------------------------
E|---------------------------------------------------
A|-5-5-5-5-6-6-6-6-8-8-8-8-7-7-7-7-5..-6..-8..-7..-5~#/7t2##/7t1#

(Guitarra 2 - Parte 2)

#8t1##8t2#B|---------------------------------------------------
F|---------------------------------------------------
D|---------------------------------------------------
A|---------------------------------------------------
E|-6-6-6-6-7-7-7-7-9-9-9-9-8-8-8-8-6..-7..-9..-8..-6~
A|---------------------------------------------------#/8t2##/8t1#

(Parte 2 - 2x)

#9t1#     P.M.  . .       . .   . .       . .   . .
#9t2#B|---------------------------------------------------
F|---------------------------------------------------
D|---------------------------------------------------
A|-6-----5-----5h6-6-----5-----5h6-6-----5-----5h6---
E|-6-----5---0-5h6-6-----5-----5h6-6-----5-----5h6---
A|-6-0-0-5-0-0-5h6-6-0-0-5-0-0-5h6-6-0-0-5-0-0-5h6---
   P.M.. . . . . .#/9t2##/9t1#
#10t1##10t2#B|---------------------------------------------------
F|---------------------------------------------------
D|---------------------------------------------------
A|---------------------------------------------------
E|-6-5-3-1-3-5-3-2-----------------------------------
A|-6-5-3-1-3-5-3-2-----------------------------------#/10t2##/10t1#

Primeira Parte:

#11t1#       P.M.      . .   . .       . .   . .
#11t2#B|---------------------------------------------------
F|---------------------------------------------------
D|---------------------------------------------------
A|-6p5-----5h6-6-----5-----5h6-6-----5-----5h6-------
E|-6p5-----5h6-6-----5-----5h6-6-----5-----5h6-------
A|-6p5-0-0-5h6-6-0-0-5-0-0-5h6-6-0-0-5-0-0-5h6-------
   P.M.. . . . . .#/11t2##/11t1#
#12t1##12t2#B|---------------------------------------------------
F|---------------------------------------------------
D|---------------------------------------------------
A|---------------------------------------------------
E|-6-5-3-1-3-5-3-2-----------------------------------
A|-6-5-3-1-3-5-3-2-----------------------------------#/12t2##/12t1#
I did my time, and I want out!
So abusive fate,
It doesn't cut, this soul is not so vibrant.

#13t1#     P.M.  . .       . .   . .       . .   . .
#13t2#B|---------------------------------------------------
F|---------------------------------------------------
D|---------------------------------------------------
A|-6-----5-----5h6-6-----5-----5h6-6-----5-----5h6---
E|-6-----5-----5h6-6-----5-----5h6-6-----5-----5h6---
A|-6-0-0-5-0-0-5h6-6-0-0-5-0-0-5h6-6-0-0-5-0-0-5h6---
   P.M.. . . . . .#/13t2##/13t1#
#14t1##14t2#B|---------------------------------------------------
F|---------------------------------------------------
D|---------------------------------------------------
A|---------------------------------------------------
E|-6-5-3-1-3-5-3-2-----------------------------------
A|-6-5-3-1-3-5-3-2-----------------------------------#/14t2##/14t1#
The reckoning, the sickening.
Back at you subversion.
Pseudo-sacrosanct perversion

#15t1#     P.M.  . .       . .   . .       . .   . .
#15t2#B|---------------------------------------------------
F|---------------------------------------------------
D|---------------------------------------------------
A|-6-----5-----5h6-6-----5-----5h6-6-----5-----5h6---
E|-6-----5-----5h6-6-----5-----5h6-6-----5-----5h6---
A|-6-0-0-5-0-0-5h6-6-0-0-5-0-0-5h6-6-0-0-5-0-0-5h6---
   P.M.. . . . . .#/15t2##/15t1#
#16t1##16t2#B|---------------------------------------------------
F|---------------------------------------------------
D|---------------------------------------------------
A|---------------------------------------------------
E|-6-5-3-1-3-5-3-2-----------------------------------
A|-6-5-3-1-3-5-3-2-----------------------------------#/16t2##/16t1#
Go drill your deserts, go dig your graves!
Then fill your mouth with all the money you will save.

#17t1#     P.M.  . .       . .   . .       . .   . .
#17t2#B|---------------------------------------------------
F|---------------------------------------------------
D|---------------------------------------------------
A|-6-----5-----5h6-6-----5-----5h6-6-----5-----5h6---
E|-6-----5-----5h6-6-----5-----5h6-6-----5-----5h6---
A|-6-0-0-5-0-0-5h6-6-0-0-5-0-0-5h6-6-0-0-5-0-0-5h6---
   P.M.. . . . . .#/17t2##/17t1#
#18t1##18t2#B|---------------------------------------------------
F|---------------------------------------------------
D|---------------------------------------------------
A|---------------------------------------------------
E|-6-5-3-1-3-5-3-2-----------------------------------
A|-6-5-3-1-3-5-3-2-----------------------------------#/18t2##/18t1#
Sinking in, getting smaller again.
I'm done! It has begun, I'm not the only one!


Primeiro Refrão:
Ab5          Eb5       Bb5    G5
    And the rain will kill us all.
C5              Eb5     Ab5
   If throw ourselves against the wall.
     Eb5   Bb5       G5
But no one else can see.

The preservation of the martyr in me.
Passagem 1:
   P.M.    . .   . .       . .   . .       . .   . .
#19t1##19t2#B|---------------------------------------------------
F|---------------------------------------------------
D|---------------------------------------------------
A|---5h6-6-----5-----5h6-6-----5-----5h6-6-----5-----
E|-0-5h6-6-----5-----5h6-6-----5-----5h6-6-----5-----
A|-0-5h6-6-0-0-5-0-0-5h6-6-0-0-5-0-0-5h6-6-0-0-5-0-0-
       P.M.. . . . . .#/19t2##/19t1#
#20t1##20t2#B|---------------------------------------------------
F|---------------------------------------------------
D|---------------------------------------------------
A|-5h6-----------------------------------------------
E|-5h6-6-5-3-1-3-5-3-2-------------------------------
A|-5h6-6-5-3-1-3-5-3-2-------------------------------#/20t2##/20t1#
Psychosocial, Psychosocial, Psychosocial

#21t1#     P.M.  . .       . .   . .       . .   . .
#21t2#B|---------------------------------------------------
F|---------------------------------------------------
D|---------------------------------------------------
A|-6-----5-----5h6-6-----5-----5h6-6-----5-----5h6---
E|-6-----5-----5h6-6-----5-----5h6-6-----5-----5h6---
A|-6-0-0-5-0-0-5h6-6-0-0-5-0-0-5h6-6-0-0-5-0-0-5h6---
   P.M.. . . . . .#/21t2##/21t1#
#22t1##22t2#B|---------------------------------------------------
F|---------------------------------------------------
D|---------------------------------------------------
A|---------------------------------------------------
E|-6-5-3-1-3-5-3-2-----------------------------------
A|-6-5-3-1-3-5-3-2-----------------------------------#/22t2##/22t1#
Psychosocial, Psychosocial, Psychosocial

Segunda Parte:

#23t1#       P.M.      . .   . .       . .   . .
#23t2#B|---------------------------------------------------
F|---------------------------------------------------
D|---------------------------------------------------
A|-6p5-----5h6-6-----5-----5h6-6-----5-----5h6-------
E|-6p5-----5h6-6-----5-----5h6-6-----5-----5h6-------
A|-6p5-0-0-5h6-6-0-0-5-0-0-5h6-6-0-0-5-0-0-5h6-------
   P.M.. . . . . .#/23t2##/23t1#
#24t1##24t2#B|---------------------------------------------------
F|---------------------------------------------------
D|---------------------------------------------------
A|---------------------------------------------------
E|-6-5-3-1-3-5-3-2-----------------------------------
A|-6-5-3-1-3-5-3-2-----------------------------------#/24t2##/24t1#
Go! There are cracks in the road we laid.
But we're the temple fell, the secret death's gone mad.

#25t1#     P.M.  . .       . .   . .       . .   . .
#25t2#B|---------------------------------------------------
F|---------------------------------------------------
D|---------------------------------------------------
A|-6-----5-----5h6-6-----5-----5h6-6-----5-----5h6---
E|-6-----5-----5h6-6-----5-----5h6-6-----5-----5h6---
A|-6-0-0-5-0-0-5h6-6-0-0-5-0-0-5h6-6-0-0-5-0-0-5h6---
   P.M.. . . . . .#/25t2##/25t1#
#26t1##26t2#B|---------------------------------------------------
F|---------------------------------------------------
D|---------------------------------------------------
A|---------------------------------------------------
E|-6-5-3-1-3-5-3-2-----------------------------------
A|-6-5-3-1-3-5-3-2-----------------------------------#/26t2##/26t1#
This is nothing new, but when we kill it all?
The hate was all we had!

#27t1#     P.M.  . .       . .   . .       . .   . .
#27t2#B|---------------------------------------------------
F|---------------------------------------------------
D|---------------------------------------------------
A|-6-----5-----5h6-6-----5-----5h6-6-----5-----5h6---
E|-6-----5-----5h6-6-----5-----5h6-6-----5-----5h6---
A|-6-0-0-5-0-0-5h6-6-0-0-5-0-0-5h6-6-0-0-5-0-0-5h6---
   P.M.. . . . . .#/27t2##/27t1#
#28t1##28t2#B|---------------------------------------------------
F|---------------------------------------------------
D|---------------------------------------------------
A|---------------------------------------------------
E|-6-5-3-1-3-5-3-2-----------------------------------
A|-6-5-3-1-3-5-3-2-----------------------------------#/28t2##/28t1#
Who needs another mess, we could start over.
Just look me in the eyes and say I'm wrong!

#29t1#     P.M.  . .       . .   . .       . .   . .
#29t2#B|---------------------------------------------------
F|---------------------------------------------------
D|---------------------------------------------------
A|-6-----5-----5h6-6-----5-----5h6-6-----5-----5h6---
E|-6-----5-----5h6-6-----5-----5h6-6-----5-----5h6---
A|-6-0-0-5-0-0-5h6-6-0-0-5-0-0-5h6-6-0-0-5-0-0-5h6---
   P.M.. . . . . .#/29t2##/29t1#
#30t1##30t2#B|---------------------------------------------------
F|---------------------------------------------------
D|---------------------------------------------------
A|---------------------------------------------------
E|-6-5-3-1-3-5-3-2-----------------------------------
A|-6-5-3-1-3-5-3-2-----------------------------------#/30t2##/30t1#
Now there's only emptiness, burn elicit self threat
I think we're done, I'm not the only one!


Segundo Refrão:
Ab5          Eb5       Bb5    G5
    And the rain will kill us all.
C5              Eb5     Ab5
   If throw ourselves against the wall.
     Eb5   Bb5       G5
But no one else can see.

The preservation of the martyr in me.
Solo:
#31t1##31t2#B|---------------------------------------------------
F|---------------------------------------------------
D|---------------7-----------------------------------
A|--------7h8h10---10-8-7-------------7h8h10-7h8h10--
E|-6h8h10-----------------10-8-6h8h10----------------
A|---------------------------------------------------#/31t2##/31t1#

#32t1##32t2#B|---------------------------------------------------
F|--------------------8------------------------------
D|-------------7h8h10---10-8-7-------------7h8h10----
A|-10-8-7h8h10-----------------10-8-7h8h10-----------
E|---------------------------------------------------
A|---------------------------------------------------#/32t2##/32t1#

#33t1##33t2#B|----------------------------8----------------------
F|-------8-------------8h9h11---11-9-8---------------
D|-7h810---10-8-7h8h10-----------------10-8-7h8h10---
A|---------------------------------------------------
E|---------------------------------------------------
A|---------------------------------------------------#/33t2##/33t1#

#34t1##34t2#B|---------------8-------------8h10h11---------------
F|-8h9h11-8h9h11---11-9-8h9h11---------9h11h13-------
D|---------------------------------------------------
A|---------------------------------------------------
E|---------------------------------------------------
A|---------------------------------------------------#/34t2##/34t1#

#35t1##35t2#B|-10h11h13-13-11-10---------13-11-10---------10~~---
F|-------------------13-11-9----------13-11-9--------
D|---------------------------------------------------
A|---------------------------------------------------
E|---------------------------------------------------
A|---------------------------------------------------#/35t2##/35t1#

#36t1##36t2#B|-10h11p10p8-10~~--10h11p10p8-11/15--11--10--8--10~-
F|---------------------------------------------------
D|---------------------------------------------------
A|---------------------------------------------------
E|---------------------------------------------------
A|---------------------------------------------------#/36t2##/36t1#

#37t1##37t2#B|-10b11r10------------------------------------------
F|-------------8~-8b9r8------------------------------
D|-------------------------7~-7b8r7--8--7h8p7--------
A|--------------------------------------------10--8--
E|---------------------------------------------------
A|---------------------------------------------------#/37t2##/37t1#

#38t1##38t2#B|-10--11h13--11--10--11--10-----10--11/15-11--10--11
F|----------------------------11---------------------
D|---------------------------------------------------
A|---------------------------------------------------
E|---------------------------------------------------
A|---------------------------------------------------#/38t2##/38t1#

#39t1##39t2#B|-10h11p10-8--10--11--10~~--------------------------
F|---------------------------------------------------
D|----------------------------\8----7~~-8b10r8~-7b8~-
A|-------------------------------10------------------
E|---------------------------------------------------
A|---------------------------------------------------#/39t2##/39t1#

#40t1##40t2#B|---------------------------------------------------
F|---------------------------------------------------
D|---------------------------------------------------
A|------------10----------------10h12h13-10h12h13----
E|-8h10h11/13----13-11-10h11h13----------------------
A|---------------------------------------------------#/40t2##/40t1#

#41t1##41t2#B|---------------------------------------------------
F|---------------------------------------------------
D|-10----------------10h12h13-10h12h13-12h13p12p10---
A|----13-12-10h12h13---------------------------------
E|---------------------------------------------------
A|---------------------------------------------------#/41t2##/41t1#

#42t1##42t2#B|---------------------------------------------------
F|---------------------------------------------------
D|---------------------------------------------------
A|-13-12-12h13p12p10---------------------------------
E|-------------------13-11-11h13p11p10\8-11-10-------
A|---------------------------------------------------#/42t2##/42t1#

#43t1##43t2#B|---------------------------------------------------
F|---------------------------------------------------
D|---------------------------------------------------
A|---------------------------------------------------
E|-10h11p10p8\6-10-8-8h10p8p6~-----------------------
A|---------------------------------------------------#/43t2##/43t1#

#44t1##44t2#B|---------------------------------------------------
F|---------------------------------------------------
D|-/12~~-8--8--7h8p7-----8--7h8p7--------------------
A|-------------------10-----------7--8--7------------
E|-----------------------------------------8--6--3h5-
A|---------------------------------------------------#/44t2##/44t1#

Ponte:

The limits of the dead! (4x)

(Guitarra 1)
   P.M.   . .    . .   . . . .    . . . .
#45t1##45t2#B|---------------------------------------------------
F|---------------------------------------------------
D|--------------------------------------------------- (11x)
A|---------------------------------------------------
E|---------------------------------------------------
A|-0-0----0-0----0-0---0-0-0-0----0-0-0-0------------
   P.M.   . .    . .   . . . .#/45t2##/45t1#
#46t1##46t2#B|---------------------------------------------------
F|---------------------------------------------------
D|---------------------------------------------------
A|---------------------------------------------------
E|---------------------------------------------------
A|-0-0----0-0----0-0---0-0-0-0-----------------------#/46t2##/46t1#

(Guitarra 2)
   P.M.   .  .  . . . .  . . .
#47t1##47t2#B|---------------------------------------------------
F|---------------------------------------------------
D|---------------------------------------------------  (3x)
A|---------------------------------------------------
E|---------------------------------------------------
A|-0—4b6--0--0--0-0-0-0--0-0-0-2b3r2-----------------
   P.M.    .  .  . . . .#/47t2##/47t1#
#48t1##48t2#B|---------------------------------------------------
F|---------------------------------------------------
D|---------------------------------------------------
A|---------------------------------------------------
E|---------------------------------------------------
A|-0--4b6--0--0--0-0-0-0-----------------------------#/48t2##/48t1#

Terceira Parte:

#49t1#   P.M..   . .   . .       . .   . .       . .   . .
#49t2#B|---------------------------------------------------
F|---------------------------------------------------
D|---------------------------------------------------
A|-------6-----5-----5h6-6-----5-----5h6-6-----5-----
E|-0-5-0-6-----5-----5h6-6-----5-----5h6-6-----5-----
A|-0-5-0-6-0-0-5-0-0-5h6-6-0-0-5-0-0-5h6-6-0-0-5-0-0-
       P.M.. . . . . .#/49t2##/49t1#
#50t1##50t2#B|---------------------------------------------------
F|---------------------------------------------------
D|---------------------------------------------------
A|-5h6-----------------------------------------------
E|-5h6-6-5-3-1-3-5-3-2-------------------------------
A|-5h6-6-5-3-1-3-5-3-2-------------------------------#/50t2##/50t1#
Fate! Cannot catch this lie, (Psychosocial)
I tried to tell you but, (Psychosocial)
Your purple hearts are giving out. (Psychosocial)

#51t1#     P.M.  . .       . .   . .       . .   . .
#51t2#B|---------------------------------------------------
F|---------------------------------------------------
D|---------------------------------------------------
A|-6-----5-----5h6-6-----5-----5h6-6-----5-----5h6---
E|-6-----5-----5h6-6-----5-----5h6-6-----5-----5h6---
A|-6-0-0-5-0-0-5h6-6-0-0-5-0-0-5h6-6-0-0-5-0-0-5h6---
   P.M.. . . . . .#/51t2##/51t1#
#52t1##52t2#B|---------------------------------------------------
F|---------------------------------------------------
D|---------------------------------------------------
A|---------------------------------------------------
E|-6-5-3-1-3-5-3-2-----------------------------------
A|-6-5-3-1-3-5-3-2-----------------------------------#/52t2##/52t1#
Can't stop the killing idea. (Psychosocial)
If it's hunting season. (Psychosocial)
Is this what you want? (Psychosocial)
I'm not the only one!


Terceiro Refrão 2x:
Ab5          Eb5       Bb5    G5
    And the rain will kill us all.
C5              Eb5     Ab5
   If throw ourselves against the wall.
     Eb5   Bb5       G5
But no one else can see.

The preservation of the martyr in me.
Final:

(Guitarra 1)
   P.M.. . . . . . . . . . . . . .
#53t1##53t2#B|---------------------------------------------------
F|---------------------------------------------------
D|---------------------------------------------------
A|-0-0-7-7-0-0-0-0-5-5-8-8-4-4-7-7-------------------
E|---------------------------------------------------
A|---------------------------------------------------#/53t2##/53t1#
#54t1#   P.M.. . . . . . . . . . H.A
#54t2#B|---------------------------------------------------
F|---------------------------------------------------
D|---------------------------------------------------
A|-0-0-7-7-0-0-0-0-5-5-8-8-5~~-----------------------
E|---------------------------------------------------
A|---------------------------------------------------#/54t2##/54t1#

(Guitarra 2)
   P.M.. . . . . . . . .  .  . . . .
#55t1##55t2#B|---------------------------------------------------
F|---------------------------------------------------
D|---------------------------------------------------
A|---------------------------------------------------
E|-----8-8-5-5-5-5-6-6-10-10-5-5-8-8-----------------
A|-0-0-----------------------------------------------#/55t2##/55t1#
#56t1#   P.M.. . . . . . . . .  .  H.A
#56t2#B|---------------------------------------------------
F|---------------------------------------------------
D|---------------------------------------------------
A|---------------------------------------------------
E|-----8-8-5-5-5-5-6-6-10-10-5~~---------------------
A|-0-0-----------------------------------------------#/56t2##/56t1#

#57t1#   P.M. . .  . .  . .  . . . .  . . .
#57t2#B|---------------------------------------------------
F|---------------------------------------------------
D|---------------------------------------------------  (3x)
A|---------------------------------------------------
E|---------------------------------------------------
A|-0-0--0-0--0-0--0-0--0-0-0-0--0-0-0-2b3r2----------#/57t2##/57t1#
The limits of the dead! (2x)

#58t1#   P.M. . .  . .  . .  . . . .
#58t2#B|---------------------------------------------------
F|---------------------------------------------------
D|---------------------------------------------------
A|---------------------------------------------------
E|---------------------------------------------------
A|-0-0--0-0--0-0--0-0--0-0-0-0-----------------------#/58t2##/58t1#
Composição: SlipknotColaboração e revisão: Vinícius Diasmaurolucas matheusDaniel Andrade
Videoaula Psychosocial (aula de guitarra)