Pulse Of The Maggots

Slipknot

Tom: G
Tune to (from low to high) B F# B E G# C#

h = hammer on 
p = pull of 
~ = vibrato
\\/= wide vibrato
/ = slide up
\\ = slide down
(#) = tied note
b = bend note
Ah = artificial harmonic

Intro gtrs 1 and 2              
                        2x
#1t1##1t2#C#|---------------------------  
G#|---------------------------
E |---------------------------
B |---------------------------          |-------------------------------------------
F#|---------------------------          |13p12-13p12-13p12-13p12-13p12-13p12-13p12-13
B |-0-0---0-1-1-1-1-0-0-0-3/13~~~       |-------------------------------------------
                                                        8x#/1t2##/1t1#
#2t1##2t2#|3-4-5------------------------------- |-----------------------------    
|3-4-5--------------------3-3-3-4-3-1 |-----------------------------
|1-2-3--1-1-1-3-3-3-4-4-4-3-3-3-4-3-1 |-----------------------------
|-------------------------3-3-3-4-3-1 |-0-0---0-1-1-1-1-0-0-0-3/13~~#/2t2##/2t1#

#3t1##3t2#|----6---5---3--5-3---
|----6---5---3--5-3---
|0-0-6---5---3--5-3-0-1-0#/3t2##/3t1#

#4t1#Verse                                           4x
#4t2#|----------------------0-1-3-4-3-1-0----------------------
|----------------------0-1-3-4-3-1-0----------------------
|0-0---0-1-1-1-1-0-0---0-1-3-4-3-1-0--0-1-1-1-0-0-0-3/13~~#/4t2##/4t1#

#5t1#Chorus (Bunch of siren effects here)            2x
#5t2#|----6---5---3--5-3-----------6---5---3--5-3------
|----6---5---3--5-3-----------6---5---3--5-3------
|0-0-6---5---3--5-3-0-1-0-0-0-6---5---3--5-3-0-1-0#/5t2##/5t1#

#6t1#Interlude (Tremolo picking) 2x (Mick) ßPlay at same timeà       (Tremolo Picking) Jim
#6t2#|---------------------------------              G#|----------------------------------------
|3---2--3-0--2-0---3---2--3-0--2-0              E |10---9--10-7-9-7---------10---9--10-7--9-7
|---------------------------------              B |------------------9-10-9-------------------9-10-9#/6t2##/6t1#

#7t1#Solo (this is a very cool solo; jim and mick switch between rhythms and solos)
#7t2#C#|-Y---------16-17h19-20--23-19h22---------19-19-19-22p19---16-16-20-17-17-20-16-16-19--------
G#|-E|-------17----------------------19-22p19--------------21----------------------------------19
E |-S-16-16----------------------------------------------------------------------------17-16-16#/7t2##/7t1#

#8t1##8t2#|--------------------18-20\\13---------19--(19)---------23-23-23b2--------
|20\\18-----18---20p18--------18--20p18-------18--20p18--------------15-15
|-----16/18--20----------------20--------------20------------------------#/8t2##/8t1#

#9t1##9t2#|-------------------------------------------------------------
|17b1\\/\\/\\/\\/------17b1~~~~~~------17b1\\/\\/\\/\\/\\/\\/\\/\\/---15h17
|-------------------------------------------------------------
C#|---------------------------------------------------------------
G#|15------15-----------------------------------------------------
E |---17p16--17-15-14---------------------------------------------
B |--------------------17-15-17p15-17p15-----17p16-12-14-10-12p9--
F#|-------------------------------------18p16-------------------10p8#/9t2##/9t1#

#10t1##10t2#C#|---------12h15-18p15---------------------/18-15--------------15-18/21p18----------
G#|-------14-----------17---------------14h17-----17-------17-17-----------20p17-----
E |--12h15---------------18p15--------15------------18-15-----------------------18---
B |14-------------------------17p15-17-------------------17------------------------20#/10t2##/10t1#

#11t1##11t2#|21p18-21p18-------------------------------------------18h21--------------------------
|-----------20p17----------20-------------------------------20p17-------20------------
|---------------------18h21--21p18--18h21b1--21b½--(21)------------18-21--21--18-21-19
|-------------------20------------20-----------------------------20---------20--------#/11t2##/11t1#

#12t1##12t2#|----------------------------------------------------------------------12-12-----12-12
|-------------------------------------------------------15-13-15-13-12------15-13----
|-----------------10---------10-10-12-12-14-14-12-10-12------------------------------
|8-8-10-8-10-10-11--11-10-11---------------------------------------------------------#/12t2##/12t1#

#13t1##13t2#C#|17-15-13-12-13-12----15-18-17-18-15-18-14-18-15-18-17-15-18-14-15-17-15-17------------
G#|------------------15-------------------------------------------------------17-15-14-12#/13t2##/13t1#

#14t1#Pre verse                       8x
#14t2#B |--1---------------------1-3-4
F#|--1---------------------1-3-4
B |0-1-0-3~~--0-0-0-0-3~~--1-3-4#/14t2##/14t1#
         Ah           Ah


#15t1#Verse                                           4x
#15t2#|----------------------0-1-3-4-3-1-0----------------------
|----------------------0-1-3-4-3-1-0----------------------
|0-0---0-1-1-1-1-0-0---0-1-3-4-3-1-0--0-1-1-1-0-0-0-3/13~~#/15t2##/15t1#

#16t1#Chorus (Bunch of siren effects here)            2x
#16t2#|----6---5---3--5-3-----------6---5---3--5-3------
|----6---5---3--5-3-----------6---5---3--5-3------
|0-0-6---5---3--5-3-0-1-0-0-0-6---5---3--5-3-0-1-0#/16t2##/16t1#

#17t1#Interlude (Tremolo picking) 2x (Mick) ßPlay at same timeà       (Tremolo Picking) 2x Jim
#17t2#|---------------------------------              G#|----------------------------------------
|3---2--3-0--2-0---3---2--3-0--2-0              E |10---9--10-7-9-7---------10---9--10-7--9-7
|---------------------------------              B |------------------9-10-9-------------------9-10-9#/17t2##/17t1#

#18t1#Outro                   2x
#18t2#B |--1---------------------1-3-4
F#|--1---------------------1-3-4
B |0-1-0-3~~--0-0-0-0-3~~--1-3-4#/18t2##/18t1#
         Ah           Ah
                                                                              3x
#19t1##19t2#C#|15-18-17-18-15-18-14-18-15-18-17-18-15-18-14-18-15-18-17-18-15-18-14-15-17-15-14
G#|--------------------------------------------------------------------------------
E |--------------------------------------------------------------------------------#/19t2##/19t1#

#20t1##20t2#C#|15-18-17-18-15-18-14-18-15-18-17-18-15-18-14-18-15-18-17-18-15-18-14-15-17-15-14-15-23--(23)
G#|-------------------------------------------------------------------------------------------#/20t2##/20t1#
Composição: Colaboração e revisão: Bruno BianchiAndré Boto