Purity

Slipknot

Tom: G
Legend:
         ^ = bend downward
         p = pull off
         b = bend string
         r = release string
\:<>:/ = palm mute area indicated      
         x = mute out string


 Tuning: B F# B E G# C#

#1t1##1t2#|-------------------------------------------------------------|
|-------------------------------------------------------------|
|-------------------------------------------------------------|
|-------------------------------------------------------------| X4
|-3-0-1-0-0-1-0-0-3-0-1-0-0-1-0-0-3-0-1-0-0-1-0-0-3--6^p------|
|-3-0-1-0-0-1-0-0-3-0-1-0-0-1-0-0-3-0-1-0-0-1-0-0-3--6^p------|#/1t2##/1t1#

#2t1##2t2#|--------------------------------------------------|-------------------------------|
|--------------------------------------------------|-------------------------------|
|--------------------------------------------------|-------------------------------|
|--------------------------------------------------|-------------------------------| X2
|-3-0-1-0-0-1-0-0-3-0-1-0-0-1-0-0-3-0-1-0-0-1-0-0-3|-0-1-0-0-1-0-0-3-0-1-0-0-1-0-0-|
|-3-0-1-0-0-1-0-0-3-0-1-0-0-1-0-0-3-0-1-0-0-1-0-0-3|-0-1-0-0-1-0-0-3-0-1-0-0-1-0-0-|#/2t2##/2t1#

#3t1##3t2#|------------------------------|
|------------------------------|
|------------------------------|
|------------------------------|
|--0-3-0-1-0-0-1-0-0-3--6b---r-|
|--0-3-0-1-0-0-1-0-0-3--6b---r-|#/3t2##/3t1#
\:<<<<<<<>>>>>>>:/

#4t1##4t2#|-----------------------------|
|-----------------------------|
|-----------------------------|
|-----------------------------|
|-0-3-0-1-0-0-1-0-0-3---------|
|-0-3-0-1-0-0-1-0-0-3--6b-r---|#/4t2##/4t1#
\:<<<<<<>>>>>>>:/

#5t1##5t2#|----------------------------------------------------|----------------------------------|
|----------------------------------------------------|----------------------------------|
|----------------------------------------------------|----------------------------------|
|----------------------------------------------------|----------------------------------| 
|-0-3-0-1-0-0-1-0-0-3-0-1-0-0-1-0-0-3-0-1-0-0-1-0-0-3|-0-1-0-0-1-0-0-3-0-1-0-0-1-0-0-3-0|
|-0-3-0-1-0-0-1-0-0-3-0-1-0-0-1-0-0-3-0-1-0-0-1-0-0-3|-0-1-0-0-1-0-0-3-0-1-0-0-1-0-0-3-0|#/5t2##/5t1#

#6t1##6t2#|-----------------------------|
|-----------------------------|
|-----------------------------|
|-----------------------------| X2
|-0-3-0-1-0-0-1-0-0-3---------|
|-0-3-0-1-0-0-1-0-0-3--6b-r---|#/6t2##/6t1#
\:<<<<<<>>>>>>>:/

#7t1##7t2#|--------------------------------------------------|-------------------------------|
|--------------------------------------------------|-------------------------------|
|--------------------------------------------------|-------------------------------|
|--------------------------------------------------|-------------------------------| X2
|-3-0-1-0-0-1-0-0-3-0-1-0-0-1-0-0-3-0-1-0-0-1-0-0-3|-0-1-0-0-1-0-0-3-0-1-0-0-1-0-0-|
|-3-0-1-0-0-1-0-0-3-0-1-0-0-1-0-0-3-0-1-0-0-1-0-0-3|-0-1-0-0-1-0-0-3-0-1-0-0-1-0-0-|#/7t2##/7t1#

#8t1##8t2#|------------------|
|------------------|
|-7----------------|
|-x----------------|
|-5----------------|
|-0----------------|#/8t2##/8t1#

#9t1##9t2#|-----------------------|
|-----------------------|
|-----------------------|
|-----------------------| X4
|-----------------------|
|-1/4--0--0-1/4---0--0--|#/9t2##/9t1#

#10t1##10t2#|--------------------------|
|--------------------------|
|--------------------------|
|--------------------------| X20
|-4---4---4----0---0---7---|
|-4---4---4----0---0---7---|#/10t2##/10t1#

#11t1##11t2#|------------------|
|------------------|
|-7----------------|
|-x----------------|
|-5----------------|
|-0----------------|#/11t2##/11t1#

#12t1##12t2#|-----------------------|
|-----------------------|
|-----------------------|
|-----------------------|
|-----------------------|
|-1/4--0--0-1/4---0--0--|#/12t2##/12t1#

#13t1##13t2#|-----------------------|
|-----------------------|
|-----------------------|
|-----------------------| X3
|-1/4--------1/4--------|
|-1/4--0--0-1/4---0--0--|#/13t2##/13t1#

#14t1##14t2#|---------------------------------|---------------------------------|
|---------------------------------|---------------------------------|
|---------------------------------|---------------------------------|
|---------------------------------|---------------------------------|
|---------------------------------|-0-3-0-1-0-0-1-0-0-3-0-1-0-0-1-0-|
|-0-3-0-1-0-0-1-0-0-3-0-1-0-0-1-0-|-0-3-0-1-0-0-1-0-0-3-0-1-0-0-1-0-|#/14t2##/14t1#

#15t1##15t2#|----------------------------------------------------|----------------------------------|
|----------------------------------------------------|----------------------------------|
|----------------------------------------------------|----------------------------------|
|----------------------------------------------------|----------------------------------| X2
|-0-3-0-1-0-0-1-0-0-3-0-1-0-0-1-0-0-3-0-1-0-0-1-0-0-3|-0-1-0-0-1-0-0-3-0-1-0-0-1-0-0-3-0|
|-0-3-0-1-0-0-1-0-0-3-0-1-0-0-1-0-0-3-0-1-0-0-1-0-0-3|-0-1-0-0-1-0-0-3-0-1-0-0-1-0-0-3-0|#/15t2##/15t1#
Composição: Chris Fehn / Corey Taylor / Craig Jones / Joey Jordison / Mick Thomson / Paul Gray / Shawn Crahan / Sid WilsonColaboração e revisão: André boto