Scare The Flare

Slipknot

E
123
022100
Tom: G
intro(play 6x)

#1t1##1t2#E|--------------------------------|
B|--------------------------------|
G|--------------------------------|
D|0-0-0-0/4-4-4-4/4-4-4-4/5-5-5-5-|
A|0-0-0-0/1-1-1-1/0-0-0-0/2-2-2-2-|
E|0-0-0-0/1-1-1-1/3-3-3-3/3-3-3-3-|#/1t2##/1t1#

then play this 1x

#2t1##2t2#E|--------------------------------|
B|--------------------------------|
G|--------11111111----------------|
D|11111111000000002222111100000000
A|00000000111111113333000011111111
E|11111111--------2222111100000000#/2t2##/2t1#

verse 1(play 4x)

#3t1##3t2#E|----------------------------------------------------------------|
B|----------------------------------------------------------------|
G|----------------------------------------------------------------|
D|----------------------------------------------------------------|
A|--6---6---6---6---8---8---8---8---2---2---2---2---4---4---4---4-|#/3t2##/3t1#
E 4---4---4---4---6---6---6---6---0---0---0---0---2---2---2---2---|

prechorus(play 2x)

#4t1##4t2#E|----------------|
B|----------------|
G|----------------|
D|----------------|
A|----------------|
E|4444444466666666#/4t2##/4t1#

chorus(play 12x)

#5t1##5t2#E|------------------------|
B|------------------------|
G|------------------------|
D|5-5-5-5-0--------8----7-|
A|6-6-6-6-0---4-4--9----7-|
E|3-3-3-3-0---2-2--9----7-|#/5t2##/5t1#

verse 2(play 4x)

#6t1##6t2#E|----------------------------------------------------------------|
B|----------------------------------------------------------------|
G|----------------------------------------------------------------|
D|----------------------------------------------------------------|
A|--6---6---6---6---8---8---8---8---2---2---2---2---4---4---4---4-|
E|4---4---4---4---6---6---6---6---0---0---0---0---2---2---2---2---|#/6t2##/6t1#

prechorus(play 2x)

#7t1##7t2#E|----------------|
B|----------------|
G|----------------|
D|----------------|
A|----------------|#/7t2##/7t1#
E 4444444466666666

chorus(play 12x)

#8t1##8t2#E|------------------------|
B|------------------------|
G|------------------------|
D|5-5-5-5-0--------8----7-|
A|6-6-6-6-0---4-4--9----7-|
E|3-3-3-3-0---2-2--9----7-|#/8t2##/8t1#

solo

#9t1#e 12-17-19-17-15h18------19--------10--------0-------13----------------|
#9t2#B|------------------9--10----15-------14-------9h14--------15-15-15-15-|
G|-------------------------8----9--------6-17----------16--------------|
D|---------------------------------------------------------------------|
A|---------------------------------------------------------------------|
E|---------------------------------------------------------------------|#/9t2##/9t1#

#10t1##10t2#E|---13--14---15--13-12-13-14-12-------23--------24----14--13---14--14-|#/10t2##/10t1#
#11t1#B 12---13---16-------------------14-22-----15h18----15--------15--15---|
#11t2#G|---------------------------------------------------------------------|
D|---------------------------------------------------------------------|
A|---------------------------------------------------------------------|
E|---------------------------------------------------------------------|#/11t2##/11t1#

#12t1#e 12-12---14---19-------18----21-------20--24/1-|
#12t2#B|------15--13-----23-21---24----21-22----------|
G|----------------------------------------------|
D|----------------------------------------------|
A|----------------------------------------------|
E|----------------------------------------------|#/12t2##/12t1#

chorus(play 12x)

#13t1##13t2#E|------------------------|
B|------------------------|
G|------------------------|
D|5-5-5-5-0--------8----7-|
A|6-6-6-6-0---4-4--9----7-|
E|3-3-3-3-0---2-2--9----7-|#/13t2##/13t1#
Composição: Jay Weinberg / Mick Thomson / Sid Wilson / Alessandro Venturella / Allan Rock / Anders Colsefni / Chris Fehn / Corey Taylor / Craig Jones / James Root / Jim Root / Joey Jordison / Josh Brainard / M. Shawn Crahan / Mick Thomson / Paul Gray / Ritch Ronnan / Shawn Crahan / Sid Wilson / Slipknot / Slipknot feat Linkin ParkColaboração e revisão: James Johny