busca

Scare The Flare

Slipknot

Tom: E
intro(play 6x)

E|--------------------------------|
B|--------------------------------|
G|--------------------------------|
D|0-0-0-0/4-4-4-4/4-4-4-4/5-5-5-5-|
A|0-0-0-0/1-1-1-1/0-0-0-0/2-2-2-2-|
E|0-0-0-0/1-1-1-1/3-3-3-3/3-3-3-3-|

then play this 1x

E|--------------------------------|
B|--------------------------------|
G|--------11111111----------------|
D|11111111000000002222111100000000
A|00000000111111113333000011111111
E|11111111--------2222111100000000

verse 1(play 4x)

E|----------------------------------------------------------------|
B|----------------------------------------------------------------|
G|----------------------------------------------------------------|
D|----------------------------------------------------------------|
A|--6---6---6---6---8---8---8---8---2---2---2---2---4---4---4---4-|
E 4---4---4---4---6---6---6---6---0---0---0---0---2---2---2---2---|

prechorus(play 2x)

E|----------------|
B|----------------|
G|----------------|
D|----------------|
A|----------------|
E|4444444466666666

chorus(play 12x)

E|------------------------|
B|------------------------|
G|------------------------|
D|5-5-5-5-0--------8----7-|
A|6-6-6-6-0---4-4--9----7-|
E|3-3-3-3-0---2-2--9----7-|

verse 2(play 4x)

E|----------------------------------------------------------------|
B|----------------------------------------------------------------|
G|----------------------------------------------------------------|
D|----------------------------------------------------------------|
A|--6---6---6---6---8---8---8---8---2---2---2---2---4---4---4---4-|
E|4---4---4---4---6---6---6---6---0---0---0---0---2---2---2---2---|

prechorus(play 2x)

E|----------------|
B|----------------|
G|----------------|
D|----------------|
A|----------------|
E 4444444466666666

chorus(play 12x)

E|------------------------|
B|------------------------|
G|------------------------|
D|5-5-5-5-0--------8----7-|
A|6-6-6-6-0---4-4--9----7-|
E|3-3-3-3-0---2-2--9----7-|

solo

e 12-17-19-17-15h18------19--------10--------0-------13----------------|
B|------------------9--10----15-------14-------9h14--------15-15-15-15-|
G|-------------------------8----9--------6-17----------16--------------|
D|---------------------------------------------------------------------|
A|---------------------------------------------------------------------|
E|---------------------------------------------------------------------|

E|---13--14---15--13-12-13-14-12-------23--------24----14--13---14--14-|

B 12---13---16-------------------14-22-----15h18----15--------15--15---|
G|---------------------------------------------------------------------|
D|---------------------------------------------------------------------|
A|---------------------------------------------------------------------|
E|---------------------------------------------------------------------|

e 12-12---14---19-------18----21-------20--24/1-|
B|------15--13-----23-21---24----21-22----------|
G|----------------------------------------------|
D|----------------------------------------------|
A|----------------------------------------------|
E|----------------------------------------------|

chorus(play 12x)

E|------------------------|
B|------------------------|
G|------------------------|
D|5-5-5-5-0--------8----7-|
A|6-6-6-6-0---4-4--9----7-|
E|3-3-3-3-0---2-2--9----7-|

Clipes