busca

Scream

Slipknot

Tom: G#
Tuning=Dropped B-(low to high) B,F#,B,E,G#,C#
.=Palm Mute
TR=Trill
X=Dead Strike
/=Slide up Neck

Riff 1
|--------------------------------------------------------|
|--------------------------------------------------------|
|--------------------------------------------------------|
|-4-3-2--0TR-7-6-7-8--3-2--0TR-3-2-3-4--3-2--0TR-7-6-7-8-|
|-4-3-2------7-6-7-8--3-2------3-2-3-4--3-2------7-6-7-8-|
|-4-3-2------7-6-7-8--3-2------3-2-3-4--3-2------7-6-7-8-|
  . . .      . . . .  . .      . . . .  . .      . . . .

Riff 2 riff 1 still being played
|----------------------------------------------------------|
|----------------------------------------------------------|
|----------------------------------------------------------|
|--3-2-------7-6-7-8--3-2-------3-2-3-4--3-2-------7-6-7-8-|
|--3-2-------7-6-7-8--3-2-------3-2-3-4--3-2-------7-6-7-8-|
|--3-2--7TR--7-6-7-8--3-2--3TR--3-2-3-4--3-2--7TR--7-6-7-8-|
   . .       . . . .  . .       . . . .  . .       . . . .

Riff 3
|----------------------------|
|----------------------------|
|----------------------------|
|----------------------------|
|----------------------------|
|-0-0-6-0--0-6-0-6-0-6-0-6---|

Riff 4
|----------------------------------------------|
|----------------------------------------------|
|----------------------------------------------|
|----------------------------------------------|
|----------------------------------------------|
|-0-0-0--0-0--3-0-3-0-0--0-0-0--0-0--3-0-3-0-0-|
  . . .  . .  . . . . .  . . .  . .  . . . . .

Riff 3
Riff 4

Riff 5
|----------------------------------|
|----------------------------------|
|-------------10-10-10-X-9-9-9-X-8-|
|10-10-10-10-----------------------|
|10-10-10-10---8--8--8-X-7-7-7-X-6-|
|10-10-10-10-----------------------|


Stuff

uhh?
|----------------------------------|
|----------------------------------|
|----------------------------------|
|-0-/3~/5-5~-3~--0--3~-/10---------|
|----------------------------------|
|----------------------------------|

Stuff Again

Riff ? 
|-----------------------------------------------------------------------|
|-12TR-17TR-12TR-17TR-18TR-15TR-17TR-13TR-12TR-17TR-15TR-13TR-12TR-13TR-|
|-----------------------------------------------------------------------|
|-----------------------------------------------------------------------|
|-----------------------------------------------------------------------|
|-----------------------------------------------------------------------|

Clipes

Cifra Club Pro

Aproveite o Cifra Club com benefícios exclusivos e sem anúncios
Cifra Club Pro
Aproveite o Cifra Club com benefícios exclusivos e sem anúncios