Tom: G
Tuning from low to high: B F B Eb G C
PM - Palm Mute
1/2 - Bend 1/2 step

Intro
~~~~~
#1t1##1t2#|--------------------------------|-------------------------------|
|--------------------------------|-------------------------------|
|--------------------------------|-------------------------------|
|--------------------------------|-------------------------------|
|--0-0---0-0-0---0-0-0---0-0-0-1-|-0-0---000-0---000-0---000-0-1-|
|--0-0---0-0-0---0-0-0---0-0-0-1-|-0-0---000-0---000-0---000-0-1-|#/1t2##/1t1#

#2t1##2t2#|-------------------|----------------|
|-------------------|----------------|
|-------------------|----------------|
|-------------------|----------------|
|--3p2-0-0-1-00-0-0-|-0-0-1--0-0-3h2-|
|--3p2-0-0-1-00-0-0-|-0-0-1--0-0-3h2-|
PM     - -            - -    - -#/2t2##/2t1#


Verse 1
~~~~~~~
#3t1##3t2#|------------------------------|-----------------------------|
|------------------------------|-----------------------------|
|------------------------------|-----------------------------|
|------------------------------|-----------------------------|
|------------------------------|-1-----1-0--1-0--1-0-1-4-3-0-|
|--1-0-0-1-0--1-0--1-0-1-4-3-0-|-1-0-0-1-0--1-0--1-0-1-4-3-0-|#/3t2##/3t1#

#4t1##4t2#|----------------------------------|
|----------------------------------|
|--5-5-5-5---------4-4-4-4---------| GUITAR 1
|----------7-7-7-7---------6-6-6-6-|
|----------------------------------|
|----------------------------------|
|                                  |#/4t2##/4t1#
#5t1##5t2#|----------------------------------|
|----------------------------------|
|----------------------------------| GUITAR 2
|----------------------------------|
|----------------------------------|
|--5-5-5-5-2-2-2-2-4-4-4-4-1-1-1-1-|#/5t2##/5t1#

#6t1##6t2#|-----------------------------|
|-----------------------------|
|-----------------------------|
|-----------------------------|
|-1-0---1-0--1-0--1-0-1-4-3-0-|
|-1-0- -1-0--1-0--1-0-1-4-3-0-|#/6t2##/6t1#

Bridge
~~~~~~
#7t1##7t2#|------------------------|---------------------|
|------------------------|---------------------|
|------------------------|---------------------|
|------------1---------1-|---------------------|
|--5~--0--------1~-------|-5^-5^---------------|
|--------0-0-------1-1---|-------0-6--0-6--0-6-|
PM       - -       - -                         #/7t2##/7t1#
1/2                         -  -

Verse 2
~~~~~~~
#8t1##8t2#|------------------|
|------------------|
|------------------|
|------------------|
|--0--0--0--0--0-6-|
|--0--0--0--0--0-6-|
PM -  -  -  -  -#/8t2##/8t1#

#9t1##9t2#|----------------------|---------------------------------|
|----------------------|---------------------------------|
|----------------------|---------------------------------|
|-----------3----------|---------------------------------|
|--0--3--2--1----0-3-2-|-5-2-0-2-0---5-2-0-2-0---5-2-0-2-|
|--0--3--2-------0-3-2-|-5-2-0-2-0---5-2-0-2-0---5-2-0-2-|
PM               -         #/9t2##/9t1#
Composição: Corey Taylor / Joey Jordison / Mick Thomson / Paul Gray / Shawn CrahanColaboração e revisão: Giácomo