busca

Sic

Slipknot

Tom: E
Tuning from low to high: B F B Eb G C
PM - Palm Mute
1/2 - Bend 1/2 step

Intro
~~~~~
|--------------------------------|-------------------------------|
|--------------------------------|-------------------------------|
|--------------------------------|-------------------------------|
|--------------------------------|-------------------------------|
|--0-0---0-0-0---0-0-0---0-0-0-1-|-0-0---000-0---000-0---000-0-1-|
|--0-0---0-0-0---0-0-0---0-0-0-1-|-0-0---000-0---000-0---000-0-1-|

|-------------------|----------------|
|-------------------|----------------|
|-------------------|----------------|
|-------------------|----------------|
|--3p2-0-0-1-00-0-0-|-0-0-1--0-0-3h2-|
|--3p2-0-0-1-00-0-0-|-0-0-1--0-0-3h2-|
PM     - -            - -    - -


Verse 1
~~~~~~~
|------------------------------|-----------------------------|
|------------------------------|-----------------------------|
|------------------------------|-----------------------------|
|------------------------------|-----------------------------|
|------------------------------|-1-----1-0--1-0--1-0-1-4-3-0-|
|--1-0-0-1-0--1-0--1-0-1-4-3-0-|-1-0-0-1-0--1-0--1-0-1-4-3-0-|

|----------------------------------|
|----------------------------------|
|--5-5-5-5---------4-4-4-4---------| GUITAR 1
|----------7-7-7-7---------6-6-6-6-|
|----------------------------------|
|----------------------------------|
|                                  |
|----------------------------------|
|----------------------------------|
|----------------------------------| GUITAR 2
|----------------------------------|
|----------------------------------|
|--5-5-5-5-2-2-2-2-4-4-4-4-1-1-1-1-|

|-----------------------------|
|-----------------------------|
|-----------------------------|
|-----------------------------|
|-1-0---1-0--1-0--1-0-1-4-3-0-|
|-1-0- -1-0--1-0--1-0-1-4-3-0-|

Bridge
~~~~~~
|------------------------|---------------------|
|------------------------|---------------------|
|------------------------|---------------------|
|------------1---------1-|---------------------|
|--5~--0--------1~-------|-5^-5^---------------|
|--------0-0-------1-1---|-------0-6--0-6--0-6-|
PM       - -       - -                         
1/2                         -  -

Verse 2
~~~~~~~
|------------------|
|------------------|
|------------------|
|------------------|
|--0--0--0--0--0-6-|
|--0--0--0--0--0-6-|
PM -  -  -  -  -

|----------------------|---------------------------------|
|----------------------|---------------------------------|
|----------------------|---------------------------------|
|-----------3----------|---------------------------------|
|--0--3--2--1----0-3-2-|-5-2-0-2-0---5-2-0-2-0---5-2-0-2-|
|--0--3--2-------0-3-2-|-5-2-0-2-0---5-2-0-2-0---5-2-0-2-|
PM               -         

Clipes