busca

Sic

Slipknot

Tabbed By: Chris Wurth

(not sure about tuning but sounds fine)
Tuning: tune E down to C

Intro: (repeat until vocals yell)
C|-0-0--0-0-0--0-0-0--0-0-0-1-----|

Intro 2:
C|-0-0--0-0-0-0--0-0-0-0--0-0-0-0-1------|

Intro 3: (Here come the pain!)
C|-2-1--0-0-0-1-----2-1--0-0-0-1---------|

Pre Verse: (Wait until guitar plays one way through)
C|-1/0--1/0--1/0--1/0--3-2-0-2-----------|

Verse: (Enemy! Show me what you wanna be!)
C|-0-0-0--0----0-0-0-0-0--2-1-0-1--------|

Chorus:
C|-1/0-1/0-1/0-1/0---5-4-3-4-------------|

Pre Bridge:
C|--5-4-3-4-----5-4-3-4----5-4-3-4-------|

Bridge:
C|--0--0--0--5b--0--0--0--3b-------------|

Bridge 2:
C|--x-x-x--x-x-x-0-x-x--x-x-x------------|


Want the order? Listen to the song then!
Questions? Comments? E-mail them to me at E*

Clipes