Slipknot (album)

Slipknot

A
123
X02220
B
234
X24442
C
123
X32010
C#
234
X46664
D
123
XX0232
E
123
022100
F#
234
244322
G#
234
431114
Tom: G
Track Listing:
1.7426100027
2.(sic)
3.Eyeless
4.Wait And Bleed
5.Surfacing
6.Spit It Out
7.Tattered & Torn
8.Me Inside
9.Liberate
10.Prosthetics
11.No Life
12.Diluted
13.Only One
14.Scissors

1. 746100027
(no guitar)

2.(sic)
Drop B
B F# B E G# B

#1t1#x2
#1t2#e-----------------------------------------------------------------
b-----------------------------------------------------------------
g-----------------------------------------------------------------
d-----------------------------------------------------------------
a---0-------0-------0---------1-----0-------0-------0---------1---
d-0-0---0-0-0---0-0-0---0-0-0-1---0-0---0-0-0---0-0-0---0-0-0-1---#/1t2##/1t1#



#2t1#x4
#2t2#e-----------------------------------------------------------------
b-----------------------------------------------------------------
g-----------------------------------------------------------------
d-----------------------------------------------------------------
a-0----------0--------0----------1--------------------------------
d-0-0---00-0-0---00-0-0---00-0-0-1--------------------------------#/2t2##/2t1#



#3t1##3t2#e-----------------------------------------------------------------
b-----------------------------------------------------------------
g-----------------------------------------------------------------
d-----------------------------------------------------------------
a------------------------------3--1-------------------------------
d------------------------------3--1-------------------------------#/3t2##/3t1#

#4t1#x4
#4t2#e-----------------------------------------------------------------
b-----------------------------------------------------------------
g-----------------------------------------------------------------
d-----------------------------------------------------------------
a-----------------3--1------------------3--1----------------------
d-0--0---00-0--0--3--1--0--0---00-0--0--3--1----------------------#/4t2##/4t1#

Riff A

#5t1##5t2#e-----------------------------------------------------------------
b-----------------------------------------------------------------
g-----------------------------------------------------------------
d-----------------------------------------------------------------
a---------------------------------------------------------4-3---6-
d-1-0-0-1-0---1-0---1-0-1-4-3-0-6-1-0-0-1-0---1-0---1-0-1-4-3-0-6-#/5t2##/5t1#

Verse 1 

#6t1##6t2#e-----------------------------------------------------------------
b-----------------------------------------------------------------
g-----------------------------------------------------------------
d-----------------------------------------------------------------
a-1-0-0-1-0---1-0---1-0-1-4-3-0-6-1-0-0-1-0---1-0---1-0-1-4-3-0-6-
d-1-0-0-1-0---1-0---1-0-1-4-3-0-6-1-0-0-1-0---1-0---1-0-1-4-3-0-6-#/6t2##/6t1#

Chorus:

#7t1#gtr 1
#7t2#e-----------------------------------------------------------------
b-----------------------------------------------------------------
g-----------------------------------------------------------------
d-----------------------------------------------------------------
a-----------------------------------------------------------------
d-5555-2222-4444-1111-5555-2222-4444-1111-5555-2222-4444-1111-----#/7t2##/7t1#

gtr 2.

#8t1##8t2#e-----------------------------------------------------------------
b-8888-5555-7777-4444-8888-5555-7777-4444-8888-5555-7777-4444-----
g-xxxx-xxxx-xxxx-xxxx-xxxx-xxxx-xxxx-xxxx-xxxx-xxxx-xxxx-xxxx-----
d-5555-2222-4444-1111-5555-2222-4444-1111-5555-2222-4444-1111-----
a-----------------------------------------------------------------
d-----------------------------------------------------------------#/8t2##/8t1#

Verse 2

#9t1##9t2#e-----------------------------------------------------------------
b-----------------------------------------------------------------
g-----------------------------------------------------------------
d-----------------------------------------------------------------
a-1-0---1-0---1-0---1-0-1-4-3-0-6-1-0---1-0---1-0---1-0-1-4-3-0-6-
d-1-0---1-0---1-0---1-0-1-4-3-0-6-1-0---1-0---1-0---1-0-1-4-3-0-6-#/9t2##/9t1#

Interlude:

#10t1##10t2#e-----------------------------------------------------------------
b-----------------------------------------------------------------
g-7--------8-----------8---7--------8-----------8-----------------
d-x--------x-----------x---x--------x-----------x-----------------
a-5--------6-----------6---5--------6-----------6-----------------
d----6-0-0-----7~~~~-0--------6-0-0-----7~~~~-0-------------------#/10t2##/10t1#

Interlude:

#11t1#gtr 1 and 2
#11t2#e-----------------------------------------------------------------
b-----------------------------------------------------------------
g-8--8------------------------8--8--------------------------------
d-x--x--7--6----6------6-6----x--x--7--6----6------6-6------------
a-6--6--x--x----x------x-x----6--6--x--x----x------x-x------------
d-------7--6----6------6-6----------7--6----6------6-6------------#/11t2##/11t1#

#12t1#gtr 1 and 2
#12t2#e-----------------------------------------------------------------
b-----------------------------------------------------------------
g-8--8-------------------------8--8--8-11----11/14---14-----------
d-x--x--7--6----6------6-6-----x--x--x--x-----x-x----x------------
a-6--6--x--x----x------x-x-----6--6--6--9-----9/12---12-----------
d-------7--6----6------6-6-----------7--4-----4/7----7------------#/12t2##/12t1#

Bridge: 

#13t1##13t2#e-----------------------------------------------------------------
b-----------------------------------------------------------------
g-----------------------------------------------------------------
d-----------------------------------------------------------------
a-0--0--0--0---0---0-1--0--0--0--0---0---0-1----------------------
d-0--0--0--0---0---0-1--0--0--0--0---0---0-1----------------------#/13t2##/13t1#


#14t1##14t2#e-----------------------------------------------------------------
b-----------------------------------------------------------------
g-----------------------------------------------------------------
d--------------3-------------------------3------------------------
a-0---3---2----1-----0-3-2--0---3---2----1-----0-3-2--------------
d-0---3---2----------0-3-2--0---3---2----------0-3-2--------------#/14t2##/14t1#

Outro: 

#15t1##15t2#e-----------------------------------------------------------------
b-----------------------------------------------------------------
g-----------------------------------------------------------------
d-----------------------------------------------------------------
a-5-2-1-2-1-0-5-2-1-2-1-0-5-2-0-2-5-2-1-2-1-0-5-2-1-2-1-0-5-2-0-2-
d-5-2-1-2-1-0-5-2-1-2-1-0-5-2-0-2-5-2-1-2-1-0-5-2-1-2-1-0-5-2-0-2-#/15t2##/15t1#

3. Eyeless
Drop B
B F# B E G# C#

Riff A w/ Ring Modulator x2

#16t1##16t2#e-12-12-12----12----12-12-12-12-12-12-12-12-12-12-----
b----------16----16-16-16-16-16-16-16-16-16-16-16-----
g-----------------------------------------------------
d-----------------------------------------------------
a-----------------------------------------------------
d-----------------------------------------------------#/16t2##/16t1#

Gtr 1 Riff A x2

Riff B x2

#17t1##17t2#e-----------------------------------------------------
b-----------------------------------------------------
g-----------------------------------------------------
d-----------------------------------------------------
a---------2---1---------------------------------------
d-0-0-0-3---3---2-0-0---------------------------------#/17t2##/17t1#

Riff A x6

Riff C

#18t1##18t2#e-----------------------------------------------------
b-----------------------------------------------------
g-----------------------------------------------------
d-------------------------------1---------------------
a---------2---1---------2-----1-----------------------
d-0-0-0-3---3---2-0-0-0---0-0-------------------------#/18t2##/18t1#

Fig 1. x4

#19t1##19t2#e----------------------------------------------------------------
b----------------------------------------------------------------
g----------------------------------------------------------------
d----------------------------------------------------------------
a-------3---2-3-----5-6-----6-8-------3---2-3-----5-6-----6-8----
d-0-0-0-3-0-2-3-0-0-5-6-0-0-6-8-0-0-0-3-0-2-3-0-0-5-6-0-0-6-8----#/19t2##/19t1#

Verses
Fig 2.

#20t1##20t2#e----------------------------------------------------------------
b----------------------------------------------------------------
g----------------------------------------------------------------
d----------------------------------------------------------------
a---------3---2-3------------------------3---2-3-----------------
d-0-0-0-0-3-0-2-3----------------0-0-0-0-3-0-2-3-----------------#/20t2##/20t1#

Chorus: Fig 1 x4

Bridge: Fig 3

#21t1##21t2#e-----------------------------------------------------
b-----------------------------------------------------
g-----------------------------------------------------
d-3-3-3---3-3-3-3-3-3-3---3-3-3-3---3-3-3-3-3-3-3-----
a-2-2-2---2-2-2-2-2-2-2---2-2-2-2---2-2-2-2-2-2-2-----
d-----------------------------------------------------#/21t2##/21t1#

Interlude:

Fig 4.

#22t1##22t2#e-----------------------------------------------------
b-----------------------------------------------------
g-----------------------------------------------------
d-----------------------------------------------------
a-0-0-0-----------0-0-1---0-0-1-----------------------
d-0-0-0--6~~~~~~~-0-0-1---0-0-1-----------------------#/22t2##/22t1#

Interlude:

Riff D

#23t1##23t2#e-----------------------------------------------------
b-----------------------------------------------------
g-----------------------------------------------------
d-----------------------------------------------------
a-----------------------------------------------------
d-0-------------4------------1--------2---------------#/23t2##/23t1#

Half time feel

#24t1##24t2#e-----------------------------------------------------------------
b-----------------------------------------------------------------
g-----------------------------------------------------------------
d-----------------------------------------------------------------
a-----------------------------------------------------------------
d-0-0-0-0-0-0-0-0-4-4-4-4-4-4-4-4-1-1-1-1-2-2-2-2-2-2-2-2-2-2-2-2-#/24t2##/24t1#

Outro:

Fig 5.

#25t1##25t2#e-----------------------------------------------------------------
b-----------------------------------------------------------------
g-----------------------------------------------------------------
d-----------------------------------------------------------------
a-0-0-0---------0-0-1---0-0-1--0-0-0----------0-0-1---0-0-1-------
d-0-0-0-6~~~~~~-0-0-1---0-0-1--0-0-0-6~~~~~~~-0-0-1---0-0-1-------#/25t2##/25t1#

4. Wait And Bleed
Drop B
B F# B E G# C#

Riff A x4

#26t1##26t2#e------------------------------------------------------------
b------------------------------------------------------------
g------------------------------------------------------------
d---0-----7-----1-----8-----7-------------8------------------
a-------------------------5-------7-----6---------8----8-----
d-0-----7-----1-----8-----------7---------------8----8-------#/26t2##/26t1#

gtr 2. Riff B x2

#27t1##27t2#e------------------------------------------------------------
b------------------------------------------------------------
g-14--14-14-14--14----14-14-14-14-14-15-15--15-14-14-14-14-15
d------------------------------------------------------------
a-12--12-12-12--12----12-12-12-12-12-13-13--13-12-12-12-12-13
d------------------------------------------------------------#/27t2##/27t1#

#28t1##28t2#e------------------------------------------------------------
b------------------------------------------------------------
g------------------------------------------------------------
d------------------------------------------------------------
a---------------------5-----------------------5--------------
d-0-0--0----0-0-0-0/6-----0-0--0----0-0-0-0/6----------------#/28t2##/28t1#

                                        
#29t1##29t2#e------------------------------------------------------------
b------------------------------------------------------------
g------------------------------------------------------------
d------------------------------------------------------------
a---------------------5--------------------------------------
d-0-0--0----0-0-0-0/6----0-0--0----0-0-0---------------------#/29t2##/29t1#

Verse Fig 1. x8  

#30t1##30t2#e------------------------------------------------------------
b------------------------------------------------------------
g------------------------------------------------------------
d------------------------------------------------------------
a-----------------1-4-1------------------1-4-1---------------
d-0-0--0----0-0-0-1-4-1--0-0--0----0-0-0-1-4-1---------------#/30t2##/30t1#

Chorus before interlude

gtr 1.

#31t1##31t2#e------------------------------------------------------------
b------------------------------------------------------------
g-7-7-7-7---7-7-7---8-8-7---8-8-7-7-7-7-7---7-7-7-8-8-8-8-8--
d-x-x-x-x---x-x-x---x-x-x---x-x-x-x-x-x-x---x-x-x-x-x-x-x-x--
a-5-5-5-5---5-5-5---6-6-5---6-6-5-5-5-5-5---5-5-5-6-6-6-6-6--
d------------------------------------------------------------#/31t2##/31t1#

gtr 2.

#32t1##32t2#e------------------------------------------------------------
b------------------------------------------------------------
g------------------------------------------------------------
d---0-----7-----1-----8-----7-----------8-8---8-8------------
a-------------------------5-------7--6--6-6---6-6-------5h6--
d-0-----7-----1-----8-----------7----------------------------#/32t2##/32t1#

Interlude

#33t1##33t2#e------------------------------------------------------------
b------------------------------------------------------------
g------------------------------------------------------------
d---7-----------------7-----------------7--------------------
a-8-------5br---5h6h8-------5br---5h6h8-------5br------------
d-----0-0-----0---------0-0-----0---------0-0-----0--0h1-----#/33t2##/33t1#

Bridge

#34t1##34t2#e------------------------------------------------------------
b------------------------------------------------------------
g------------------------------------------------------------
d------------------------------------------------------------
a---0-----0-----------0-----0--------------------------------
d-3---0-0-0--0--0h1h3---0-0-0--0--0h1h-----------------------#/34t2##/34t1#

Chorus

#35t1##35t2#e-----------------------------------------------------------------
b-----------------------------------------------------------------
g-----------------------------------------------------------------
d-0-0-0-7-7-7-7-1-1-1-1-1-1-1-1-1-0-0-0-7-7-7-7-1-1-1-1-1-1-1-1---
a-0-0-0-7-7-7-7-1-1-1-1-1-1-1-1-1-0-0-0-7-7-7-7-1-1-1-1-1-1-1-1---
d-0-0-0-7-7-7-7-1-1-1-1-1-1-1-1-1-0-0-0-7-7-7-7-1-1-1-1-1-1-1-1---#/35t2##/35t1#

Outro:

#36t1##36t2#e-----------------------------------------------------------------
b-----------------------------------------------------------------
g-----------------------------------------------------------------
d-----------------------------------------------------------------
a-0-0--0---0-0-0-1-4-1--0-0--0---0-0-0-1-4-1--0-0--0---0-0-0-1-4-1
d-0-0--0---0-0-0-1-4-1--0-0--0---0-0-0-1-4-1--0-0--0---0-0-0-1-4-1#/36t2##/36t1#

5. Surfacing
Drop B
B F# B E G# C#

Riff A x4 sample arr. for gtr w/ wah

#37t1##37t2#e-20b-(22)------------------20b-(22)----------------------
b---------------------------------------------------------
g---------------------------------------------------------
d----------172017201720---------------172017201720--------
a---------------------------------------------------------
d---------------------------------------------------------#/37t2##/37t1#

gtr 1 play Riff A x12

gtr 2.

#38t1##38t2#e-----------------------------------------------------------------
b-----------------------------------------------------------------
g-----------------------------------------------------------------
d-----------------------------------------------------------------
a-0-0-1-0---0-1---0-0-1-0---0-1---0-0-1-0---0-1---0-0-1-0---0-1---
d-0-0-1-0---0-1---0-0-1-0---0-1---0-0-1-0---0-1---0-0-1-0---0-1---#/38t2##/38t1#

both gtrs. x2

#39t1##39t2#e-----------------------------------------------------------------
b-----------------------------------------------------------------
g-----------------------------------------------------------------
d-----------------------------------------------------------------
a-0-0-1-0---0-1---0-0-1-0---0-1---0-0-1-0---0-1---0-0-1-0---0-1---
d-0-0-1-0---0-1---0-0-1-0---0-1---0-0-1-0---0-1---0-0-1-0---0-1---#/39t2##/39t1#

Fig 1.

#40t1##40t2#e-----------------------------------------------------------------
b-----------------------------------------------------------------
g-----------------------------------------------------------------
d-----------------------------------------------------------------
a-----1-0-----1-------1-0-----1-------1-0-----1-------1-0-----1---
d-0-0-1-0---0-1---0-0-1-0---0-1---0-0-1-0---0-1---0-0-1-0---0-1---#/40t2##/40t1#

Riff B

#41t1##41t2#e-20b-(22)------------20b-(22)----------------------------
b---------------------------------------------------------
g---------------------------------------------------------
d---------------------------------------------------------
a---------------------------------------------------------
d---------------------------------------------------------#/41t2##/41t1#

gtr 2

#42t1##42t2#e---------------------------------------------------------
b---------------------------------------------------------
g-7-7-8-7--7-8---(8)b-------------------------------------
d-x-x-x-x--x-x----x---------------------------------------
a-5-5-6-5--5-6---(6)b-------------------------------------
d---------------------------------------------------------#/42t2##/42t1#

Interlude:

#43t1##43t2#e---------------------------------------------------------
b---------------------------------------------------------
g---------------------------------------------------------
d---------------------------------------------------------
a-------7-6-----------4-3---------------------------------
d-8-7-6-----8-7-6-4-3-----4-3-2-1-------------------------#/43t2##/43t1#

#44t1##44t2#e---------------------------------------------------------
b---------------------------------------------------------
g---------------------------------------------------------
d-------9-8-----------6-5---------------------------------
a-8-7-6-7-6-8-7-6-4-3-4-3-4-3-2-1-------------------------
d-8-7-6-----8-7-6-4-3-----4-3-2-1-------------------------#/44t2##/44t1#

Bridge:

#45t1##45t2#e---------------------------------------------------------
b---------------------------------------------------------
g---------------------------------------------------------
d--------10---9-------------------------------------------
a-3---2---8---7---9---8---3---2---------------------------
d-3---2-----------9---8---3---2---------------------------#/45t2##/45t1#

6.Spit It Out
Drop B
B F# B E G# C#

#46t1#w/ flanger
#46t2#e---------------------------------------------------
b---------------------------------------------------
g---------------------------------------------------
d---------------------------------------------------
a-1--0-----1--------1--0--1--0-----1--0-----1--0----
d-1--0-/5--1--0-/5--1--0--1--0-/5--1--0-/5--1--0----#/46t2##/46t1#

Verse:  

#47t1##47t2#e---------------------------------------------------
b---------------------------------------------------
g---------------------------------------------------
d---------------------------------------------------
a-1--0-----1--0-----1--0-1--0-----1--0-----1--0-----
d-1--0-/5--1--0-/5--1--0-1--0-/5--1--0-/5--1--0-----#/47t2##/47t1#

#48t1##48t2#e---------------------------------------------------
b---------------------------------------------------
g---------------------------------------------------
d---------------------------------------------------
a-1--0-----1--0-----1--0--1--0------1----------------
d-1--0-/5--1--0-/5--1--0--1--0--/5--1----------------#/48t2##/48t1#

#49t1#Fig 1. x6
#49t2#e---------------------------------------------------
b---------------------------------------------------
g------5--------5--------------5--------5-----------
d------3--------3--------------3--------3-----------
a-1--0----1--0-----1--0--1--0-----1--0-----1--0-----
d-1--0----1--0-----1--0--1--0-----1--0-----1--0-----#/49t2##/49t1#

Chorus: 

#50t1##50t2#e---------------------------------------------------------
b---------------------------------------------------------
g---------------------------------------------------------
d---------------------------------------------------------
a-3-3-3---3-2---2-3--3-1---1-1-3-3-3---3-2---2-3--3--1----
d-3-3-3---3-2---2-3--3-1---1-1-3-3-3---3-2---2-3--3--1----#/50t2##/50t1#

Verse
Riff A

#51t1##51t2#e---------------------------------------------------------
b---------------------------------------------------------
g---------------------------------------------------------
d-----6------7br---------6------7br-----------------------
a-5-----5------------5-----5------------------------------
d---------------------------------------------------------#/51t2##/51t1#

Bridge:

#52t1##52t2#e---------------------------------------------------------
b---------------------------------------------------------
g-7-7-7--7-8--8-7--7-8---8-7-7-7-7--7-8--8-7--7-8---8-7---
d-x-x-x--x-x--x-x--x-x---x-x-x-x-x--x-x--x-x--x-x---x-x---
a-5-5-5--5-6--6-5--5-6---6-5-5-5-5--5-6--6-5--5-6---6-5---
d-0-0-0----------------------0-0-0------------------------#/52t2##/52t1#

#53t1##53t2#e---------------------------------------------------------#/53t2##/53t1#
#54t1#b101010-1011-1110-1011--1110101010-1011-1110-1011--1011---
#54t2#g-x-x-x--x-x--x-x--x-x---x-x-x-x-x--x-x--x-x--x-x---x-x---
d-7-7-7--7-8--8-7--7-8---8-7-7-7-7--7-8--8-7--7-8---7-8---
a-0-0-0--0-1--1-0--0-1---1-0-0-0-0--0-1--1-0--0-1---1-0---
d-0-0-0--0-1--1-0--0-1---1-0-0-0-0--0-1--1-0--0-1---1-0---#/54t2##/54t1#

#55t1##55t2#e---------------------------------------------------------
b---------------------------------------------------------
g-19-19-19--19-20--19-20--20-19-21212121212121212121212---
d-x--x--x---x--x---x--x---x--x--x-x-x-x-x-x-x-x-x-x-x-x---
a-17-17-17--17-18--17-18--18-17-191919191919191919191919--
d---------------------------------------------------------#/55t2##/55t1#

7.Tattered And Torn
Drop B
B F# B E G# C#

Riff A
w/ heavy reverb and whammy pedal set up one octave

#56t1##56t2#e-18p17h18-------------17h18p17h18--------------------
b----------19h20p19h20-------------16h17p16h17p16-----
g-----------------------------------------------------
d-----------------------------------------------------
a-----------------------------------------------------
d-----------------------------------------------------#/56t2##/56t1#

Verses dive w/ whammy pedal

#57t1##57t2#e-18---------(14)----------18------------(14)---------
b-----------------------------------------------------
g-----------------------------------------------------
d-----------------------------------------------------
a-----------------------------------------------------
d-----------------------------------------------------#/57t2##/57t1#

Outro:

#58t1##58t2#e---------------------------------------------------------
b---------------------------------------------------------
g---------------------------------------------------------
d---------------------------------------------------------
a-0-0--0-1p0--0-3p0--0-1p0-4--0-0--0-1p0--0-3p0--0-1p0-4--
d-0-0--0-1p0--0-3p0--0-1p0-4--0-0--0-1p0--0-3p0--0-1p0-4--#/58t2##/58t1#

#59t1##59t2#e--------------------------------------------------------------
b--------------------------------------------------------------
g--------------------------------------------------------------
d--------------------------------------------------------------
a-0-0-0-0-1p0-0-0-3p0-0-0-1p0-4-0-0-0-0-1p0-0-0-3p0-0-0-1p0-4--
d-0-0-0-0-1p0-0-0-3p0-0-0-1p0-4-0-0-0-0-1p0-0-0-3p0-0-0-1p0-4--#/59t2##/59t1#

8.Me Inside
Drop B
B F# B E G# C#


gtr 1 Fig 1. x2

#60t1##60t2#e-----------------------------------------------------------------
b-----------------------------------------------------------------
g-----------------------------------------------------------------
d-----------------------------------------------------------------
a-0-1-0----0-1-0----0-1-0----0-1-0----0-1-0----0-1-0----0-1-0-----
d-0-1-0----0-1-0----0-1-0----0-1-0----0-1-0----0-1-0----0-1-0-----#/60t2##/60t1#

gtr 2 Riff A x2

#61t1#w/ wah
#61t2#e-----------------------------------------------------------------
b-----------------------------------------------------------------
g-777777777777777777777777777777777777777777777777777777777777777-
d-----------------------------------------------------------------
a-----------------------------------------------------------------
d-----------------------------------------------------------------#/61t2##/61t1#

gtr 1

#62t1##62t2#e-----------------------------------------------------------------
b-----------------------------------------------------------------
g-----------------------------------------------------------------
d-----------------------------------------------------------------
a-1p0-1p0--0--x-1p0-1p0--0--x-1p0-1p0--0--x-1p0-1p0--0--x---------
d-1p0-1p0--0--x-1p0-1p0--0--x-1p0-1p0--0--x-1p0-1p0--0--x---------#/62t2##/62t1#

gtr 2

#63t1##63t2#e-----------------------------------------------------------------
b-----------------------------------------------------------------
g-777777777777777777777777777777777777777777777777777777777777777-
d-----------------------------------------------------------------
a-----------------------------------------------------------------
d-----------------------------------------------------------------#/63t2##/63t1#

both gtr 2.

#64t1##64t2#e-----------------------------------------------------------------
b-----------------------------------------------------------------
g-----------------------------------------------------------------
d-----------------------------------------------------------------
a-1p0-1p0--0--x-1p0-1p0--0--x-1p0-1p0--0--x-1p0-1p0--0--x---------
d-1p0-1p0--0--x-1p0-1p0--0--x-1p0-1p0--0--x-1p0-1p0--0--x---------#/64t2##/64t1#

#65t1##65t2#e-20p16----17p15p14--14h17-14h16p14-21--16p14-17p14----14h17p14-21
b-------17-----------------------------------------17-------------
g----------------------------------------------------14-----------
d-----------------------------------------------------------------
a-----------------------------------------------------------------
d-----------------------------------------------------------------#/65t2##/65t1#

Verse 1 

gtr 2 Riff B w/ heavy slow phaser

#66t1##66t2#e----16------15---------17-----16------15---------17--------------
b-------15------14----------------15------14----------------------
g-14---------------13---15--14---------------13---15--------------
d-----------------------------------------------------------------
a-----------------------------------------------------------------
d-----------------------------------------------------------------#/66t2##/66t1#

gtr 1. Riff B1

#67t1##67t2#e-----------------------------------------------------------------
b-----------------------------------------------------------------
g-----------------------------------------------------------------
d-----------------------------------------------------------------
a-----------------------------------------------------------------
d-3-0-2-3-1-2----3-0-2-3-1-2----3-0-2-3-1-2----3-0-2-3-1-2--------#/67t2##/67t1#

Chorus 

#68t1##68t2#e-----------------------------------------------------------------
b-----------------------------------------------------------------
g-----------7----7b--------------7----7b--------------7---7b------
d-----------x----x---------------x----x---------------x---x-------
a-1-1---1---5----5b----1-1---1---5----5b----1-1---1---5---5b------
d-1-1---1--------------1-1---1--------------1-1---1---------------#/68t2##/68t1#

Verse 2  

#69t1##69t2#e-----------------------------------------------------------------
b-----------------------------------------------------------------
g-----------------------------------------------------------------
d-----------------------------------------------------------------
a-----------------------------------------------------------------
d-3-0-2-3-1-2~~~-3-0-2-3-1-2~~~-3-0-2-3-1-2~~~-3-0-2-3-1-2--------#/69t2##/69t1#

Bridge   

#70t1#Fig 3
#70t2#e-----------------------------------------------------------------
b-----------------------------------------------------------------
g--------------------------------5/7-7-7-7/8-8-8------------------
d--------------------------------x-x-x-x-x-x-x-x------------------
a-0---6-5-3---1-1h3-1----0-------3/5-5-5-5/6-6-6------------------
d-0---6-5-3---1-1h3-1----0----------------------------------------#/70t2##/70t1#



#71t1##71t2#e-----------------------------------------------------------------
b-----------------------------------------------------------------
g-----------------------------------------------------------------
d-----------------------------------------------------------------
a-1--0--0-0--0-1--0--0-0--0--1--0--0-0--0-1--0--0-0--0------------
d-1--0--0-0--0-1--0--0-0--0--1--0--0-0--0-1--0--0-0--0------------#/71t2##/71t1#

#72t1##72t2#e-----------------------------------------------------------------
b-----------------------------------------------------------------
g-----------------------------------------------------------------
d-----------------------------------------------------------------
a-1p0-0---0--0-1p0-0--0--0-1p0-0--0--0-1p0-0--0-0-----------------
d-1p0-0---0--0-1p0-0--0--0-1p0-0--0--0-1p0-0--0-0-----------------#/72t2##/72t1#

Outro:

#73t1##73t2#e-----------------------------------------------------------------
b-----------------------------------------------------------------
g-7-7-7-7-7-7-7-7-7-7-7-7-7-7-7-7-7-7-7-7-7-7-7-7-7-7-7-7-7-7-7-7-
d-x-x-x-x-x-x-x-x-x-x-x-x-x-x-x-x-x-x-x-x-x-x-x-x-x-x-x-x-x-x-x-x-
a-5-5-5-5-5-5-5-5-5-5-5-5-5-5-5-5-5-5-5-5-5-5-5-5-5-5-5-5-5-5-5-5-
d-----------------------------------------------------------------#/73t2##/73t1#

#74t1##74t2#e-----------------------------------------------------------------
b-----------------------------------------------------------------
g-----------------------------------------------------------------
d-----------------------------------------------------------------
a-0-0-0-0-0-1---0-0-0-0-0-0-1---0-0-0-0-0-0-1---0-0-0-0-0-0-1-----
d-0-0-0-0-0-1---0-0-0-0-0-0-1---0-0-0-0-0-0-1---0-0-0-0-0-0-1-----#/74t2##/74t1#

9.Liberate
Drop B
B F# B E G# C#

#75t1##75t2#e----------------------------------------------------------
b----------------------------------------------------------
g----------------------------------------------------------
d----------------------------------------------------------
a----------------------------------------------------------
d-13-0--0-0--0-0-0--0-0-0--0-13-0--0-0--0-0-0--0-0-0--0----#/75t2##/75t1#

Chorus    

Fig 1. x3

#76t1##76t2#e----------------------------------------------------------
b----------------------------------------------------------
g----------------------------------------------------------
d----------------------------------------------------------
a-1--0--1-0--1-0--1-0--1--0--1-0--1-0--1-0-----------------
d-1--0--1-0--1-0--1-0--1--0--1-0--1-0--1-0-----------------#/76t2##/76t1#

#77t1##77t2#e----------------------------------------------------------
b----------------------------------------------------------
g----------------------------------------------------------
d----------------------------------------------------------
a-------------5--4-----0-----------------------------------
d-1--0--5--3--------3--0-----------------------------------#/77t2##/77t1#

Interlude:

#78t1##78t2#e----------------------------------------------------------
b----------------------------------------------------------
g----------------------------------------------------------
d----------------------------------------------------------
a-1--0----0-1-0-5-4------------0-1--0----0-1-0-4-3---2--0--
d-1--0----0-1-0-5-4-58585858~~-0-1--0----0-1-0-4-3---2--0--#/78t2##/78t1#

Verses

#79t1##79t2#e----------------------------------------------------------
b----------------------------------------------------------
g----------------------------------------------------------
d----------------------------------------------------------
a-1--0----0-1-0-5-4------------0-1--0----0-1-0-5-4---------
d-1--0----0-1-0-5-4-69696969~~-0-1--0----0-1-0-5-4-6969696~#/79t2##/79t1#

#80t1##80t2#e----------------------------------------------------------
b----------------------------------------------------------
g----------------------------------------------------------
d----------------------------------------------------------
a-1--0----00-1-0-5-4------------0-1-0----00-1-0-5-4--------
d-1--0----00-1-0-5-4-58585858~~-0-1-0----00-1-0-5-4-696969~#/80t2##/80t1#

Pre Chorus 

Fig 2.

#81t1##81t2#e-----------------------------------------
b-----------------------------------------
g-----------------------------------------
d-----------------------------------------
a-1-0---0---0---00-1-0-5-4----------------
d-1-0---0---0---00-1-0-5-4-58585858~~-----#/81t2##/81t1#

#82t1##82t2#e-----------------------------------------
b-----------------------------------------
g-----------------------------------------
d-----------------------------------------
a-1-0---0---0---00-1-0-5-4----------------
d-1-0---0---0---00-1-0-5-4-69696969~~-----#/82t2##/82t1#

Bridge: Fig.3 x4

#83t1##83t2#e-----------------------------------------
b-----------------------------------------
g-----------------------------------------
d-----------------------------------------
a-0--1---0--1---0---1---0--1---0-1---0-1--
d-0--1---0--1---0---1---0--1---0-1---0-1--#/83t2##/83t1#

#84t1##84t2#e-----------------------------------------
b-----------------------------------------
g-----------------------------------------
d-----------------------------------------
a-5------5------5-------5------5-----5----
d----1------1-------1------1-----1-----1--#/84t2##/84t1#

gtr 1. Riff B

#85t1##85t2#e-----------------------------------------
b-----------------------------------------
g-----------------------------------------
d-8-8-8b-8b-8b-8b-8b-8b-8b-8b-8b-8b-8b----
a-----------------------------------------
d-----------------------------------------#/85t2##/85t1#

gtr 2. Fig 4

#86t1##86t2#e-----------------------------------------
b-----------------------------------------
g-----------------------------------------
d-----------------------------------------
a-8--0-0-0-0-0-1-1-0-9--0-0-0-0-0-1-1-0---
d-8--0-0-0-0-0-1-1-0-9--0-0-0-0-0-1-1-0---#/86t2##/86t1#

gtr 1.

#87t1##87t2#e-----------------------------------------
b-----------------------------------------
g-----------------------------------------
d-8b-8b-8b-8b-8b-8b-8b-8-8-8-8-8-8-9-8-8--
a-----------------------------------------
d-----------------------------------------#/87t2##/87t1#

gtr 2.

#88t1##88t2#e-----------------------------------------
b-----------------------------------------
g-----------------------------------------
d-----------------------------------------
a-8--0-0-0-0-0-1-1-0-9--0-0-0--0-0--0-1---
d-8--0-0-0-0-0-1-1-0-9--0-0-0--0-0--0-1-8~#/88t2##/88t1#

Outro:

#89t1##89t2#e-----------------------------------------
b-----------------------------------------
g-----------------------------------------
d-----------------------------------------
a-2----1-----0----1----2----1----0----1---
d-2----1-----0----1----2----1----0----1---#/89t2##/89t1#




#90t1##90t2#e-----------------------------------------
b-----------------------------------------
g---------(16)----------------------------
d--------------(18)-----------------------
a-2----1-------------0-0-0-2--------------
d-2----1-------------0-0-0-2--------------#/90t2##/90t1#

10.Prosthetics
Drop B
B F# B E G# C#

really slow w/ heavy flanger and delay

#91t1#                                  Fig 1.
#91t2#e-----------------------------------------------------------------
b-----------------------------------------------------------------
g-----------------------------------------------------------------
d-7-7-6---0-0-7---0-0-7---0-0-7---0-0-6---0-0-7---0-0-7---0-0-7---
a-x-x-x---x-x-x---x-x-x---x-x-x---x-x-x---x-x-x---x-x-x---x-x-x---
d-7-7-6---0-0-7---0-0-7---0-0-7---0-0-6---0-0-7---0-0-7---0-0-7---#/91t2##/91t1#

Riff A

#92t1##92t2#e-17----17----17----17----17----17----17----17----18----18----18--
b----15----15----15----15----15----15----15----15----15----15-----
g-----------------------------------------------------------------
d-----------------------------------------------------------------
a-----------------------------------------------------------------
d-----------------------------------------------------------------#/92t2##/92t1#

#93t1##93t2#e-18----18----18----18----18--------------------------------------
b----14----14----14----14----14-----------------------------------
g-----------------------------------------------------------------
d-----------------------------------------------------------------
a-----------------------------------------------------------------
d-----------------------------------------------------------------#/93t2##/93t1#

#94t1##94t2#e-----------------------------------------------------------------
b-----------------------------------------------------------------
g-----------------------------------------------------------------
d-----------------4---------------------------4-------------------
a------5-----------------------5----------------------------------
d-0----------4----------0---------------4-------------------------#/94t2##/94t1#

Verse 1  

#95t1##95t2#e-----------------------------------------------------------------
b-----------------------------------------------------------------
g-----------------------------------------------------------------
d-----------------------------------------------------------------
a-5-5-5-5-5-5-5-5-5-5-5-5-5-5-5-5-4-4-4-4-4-4-4-4-4-4-4-4-4-4-4---
d-----------------------------------------------------------------#/95t2##/95t1#

#96t1##96t2#e-----------------------------------------------------------------
b-----------------------------------------------------------------
g-----------------------------------------------------------------
d-----------------------------------------------------------------
a---------------------------------4-4-4-4-4-4-4-4-4-4-4-4-4-4-4---
d-0-0-0-0-0-0-0-0-0-0-0-0-0-0-0-0---------------------------------#/96t2##/96t1#

Pre Chorus:   

#97t1##97t2#e-----------------------------------------------------------------
b-----------------------------------------------------------------
g-----------------------------------------------------------------
d-----------------------------------------------------------------
a-0---00-1--0---0-----00-1--0--1-----00-1-0--1---00-1-0---0-------
d-0---00-1--0---0-----00-1--0--1-----00-1-0--1---00-1-0---0-------#/97t2##/97t1#

#98t1##98t2#e-----------------------------------------------------------------
b-----------------------------------------------------------------
g-----------------------------------------------------------------
d-----------------------------------------------------------------
a-----00-1--0---0-----00-1--0--1-----00-1-0--1---00-1-0---0-------
d-----00-1--0---0-----00-1--0--1-----00-1-0--1---00-1-0---0-------#/98t2##/98t1#


Chorus:

#99t1##99t2#e-----------------------------------------------------------------
b-----------------------------------------------------------------
g-----------------------------------------------------------------
d-----------------------------------------------------------------
a-8--7--1--2--2/3-3-3-3-3-3-3--8--7--1--2--2/3-3-3-3-3-3-3--------
d-8--7--1--2--2/3-3-3-3-3-3-3--8--7--1--2--2/3-3-3-3-3-3-3--------#/99t2##/99t1#

Bridge:

gtr 2.

#100t1##100t2#e-----------------------------------------------------------------
b-7878787878787878787878787878787878787878787878787878787878787878
g-----------------------------------------------------------------
d-----------------------------------------------------------------
a-----------------------------------------------------------------
d-----------------------------------------------------------------#/100t2##/100t1#

gtr 1.

#101t1##101t2#e-----------------------------------------------------------------
b-----------------------------------------------------------------
g-----------------------------------------------------------------
d-----------------------------------------------------------------
a-3-2-0-2-1-0-1-2-3-2-0-2-1-0-1-2-3-2-0-2-0-1-2-3-2-0-2-1-0-1-2---
d-3-2-0-2-1-0-1-2-3-2-0-2-1-0-1-2-3-2-0-2-0-1-2-3-2-0-2-1-0-1-2---#/101t2##/101t1#

last bar:

#102t1##102t2#e-----------------------------------------------------------------
b-----------------------------------------------------------------
g-----------------------------------------------------------------
d-----------------------------------------------------------------
a-6----6----6----6----6----5----6---------------------------------
d-6----6----6----6----6----5----6---------------------------------#/102t2##/102t1#

11. No Life
Drop B
B F# B E G# C#

*=harmonics

Riff A

#103t1##103t2#e----------------------------------------------
b----------------------------------------------
g----------------------------------------------
d----------------------------------------------
a----------------------------------------------
d-6b--0-6b---0-0h7-7p0-6b--0-6b---0-0h7-7p0----#/103t2##/103t1#
Composição: Jay Weinberg / Mick Thomson / Sid Wilson / Alessandro Venturella / Allan Rock / Anders Colsefni / Chris Fehn / Corey Taylor / Craig Jones / James Root / Jim Root / Joey Jordison / Josh Brainard / M. Shawn Crahan / Mick Thomson / Paul Gray / Ritch Ronnan / Shawn Crahan / Sid Wilson / Slipknot / Slipknot feat Linkin ParkColaboração e revisão: Élison Duarte