busca

Slipknot (album)

Slipknot

Tom: B
Track Listing:
1.7426100027
2.(sic)
3.Eyeless
4.Wait And Bleed
5.Surfacing
6.Spit It Out
7.Tattered & Torn
8.Me Inside
9.Liberate
10.Prosthetics
11.No Life
12.Diluted
13.Only One
14.Scissors

1. 746100027
(no guitar)

2.(sic)
Drop B
B F# B E G# B

x2
e-----------------------------------------------------------------
b-----------------------------------------------------------------
g-----------------------------------------------------------------
d-----------------------------------------------------------------
a---0-------0-------0---------1-----0-------0-------0---------1---
d-0-0---0-0-0---0-0-0---0-0-0-1---0-0---0-0-0---0-0-0---0-0-0-1---



x4
e-----------------------------------------------------------------
b-----------------------------------------------------------------
g-----------------------------------------------------------------
d-----------------------------------------------------------------
a-0----------0--------0----------1--------------------------------
d-0-0---00-0-0---00-0-0---00-0-0-1--------------------------------


e-----------------------------------------------------------------
b-----------------------------------------------------------------
g-----------------------------------------------------------------
d-----------------------------------------------------------------
a------------------------------3--1-------------------------------
d------------------------------3--1-------------------------------

x4
e-----------------------------------------------------------------
b-----------------------------------------------------------------
g-----------------------------------------------------------------
d-----------------------------------------------------------------
a-----------------3--1------------------3--1----------------------
d-0--0---00-0--0--3--1--0--0---00-0--0--3--1----------------------

Riff A

e-----------------------------------------------------------------
b-----------------------------------------------------------------
g-----------------------------------------------------------------
d-----------------------------------------------------------------
a---------------------------------------------------------4-3---6-
d-1-0-0-1-0---1-0---1-0-1-4-3-0-6-1-0-0-1-0---1-0---1-0-1-4-3-0-6-

Verse 1 

e-----------------------------------------------------------------
b-----------------------------------------------------------------
g-----------------------------------------------------------------
d-----------------------------------------------------------------
a-1-0-0-1-0---1-0---1-0-1-4-3-0-6-1-0-0-1-0---1-0---1-0-1-4-3-0-6-
d-1-0-0-1-0---1-0---1-0-1-4-3-0-6-1-0-0-1-0---1-0---1-0-1-4-3-0-6-

Chorus:

gtr 1
e-----------------------------------------------------------------
b-----------------------------------------------------------------
g-----------------------------------------------------------------
d-----------------------------------------------------------------
a-----------------------------------------------------------------
d-5555-2222-4444-1111-5555-2222-4444-1111-5555-2222-4444-1111-----

gtr 2.

e-----------------------------------------------------------------
b-8888-5555-7777-4444-8888-5555-7777-4444-8888-5555-7777-4444-----
g-xxxx-xxxx-xxxx-xxxx-xxxx-xxxx-xxxx-xxxx-xxxx-xxxx-xxxx-xxxx-----
d-5555-2222-4444-1111-5555-2222-4444-1111-5555-2222-4444-1111-----
a-----------------------------------------------------------------
d-----------------------------------------------------------------

Verse 2

e-----------------------------------------------------------------
b-----------------------------------------------------------------
g-----------------------------------------------------------------
d-----------------------------------------------------------------
a-1-0---1-0---1-0---1-0-1-4-3-0-6-1-0---1-0---1-0---1-0-1-4-3-0-6-
d-1-0---1-0---1-0---1-0-1-4-3-0-6-1-0---1-0---1-0---1-0-1-4-3-0-6-

Interlude:

e-----------------------------------------------------------------
b-----------------------------------------------------------------
g-7--------8-----------8---7--------8-----------8-----------------
d-x--------x-----------x---x--------x-----------x-----------------
a-5--------6-----------6---5--------6-----------6-----------------
d----6-0-0-----7~~~~-0--------6-0-0-----7~~~~-0-------------------

Interlude:

gtr 1 and 2
e-----------------------------------------------------------------
b-----------------------------------------------------------------
g-8--8------------------------8--8--------------------------------
d-x--x--7--6----6------6-6----x--x--7--6----6------6-6------------
a-6--6--x--x----x------x-x----6--6--x--x----x------x-x------------
d-------7--6----6------6-6----------7--6----6------6-6------------

gtr 1 and 2
e-----------------------------------------------------------------
b-----------------------------------------------------------------
g-8--8-------------------------8--8--8-11----11/14---14-----------
d-x--x--7--6----6------6-6-----x--x--x--x-----x-x----x------------
a-6--6--x--x----x------x-x-----6--6--6--9-----9/12---12-----------
d-------7--6----6------6-6-----------7--4-----4/7----7------------

Bridge: 

e-----------------------------------------------------------------
b-----------------------------------------------------------------
g-----------------------------------------------------------------
d-----------------------------------------------------------------
a-0--0--0--0---0---0-1--0--0--0--0---0---0-1----------------------
d-0--0--0--0---0---0-1--0--0--0--0---0---0-1----------------------


e-----------------------------------------------------------------
b-----------------------------------------------------------------
g-----------------------------------------------------------------
d--------------3-------------------------3------------------------
a-0---3---2----1-----0-3-2--0---3---2----1-----0-3-2--------------
d-0---3---2----------0-3-2--0---3---2----------0-3-2--------------

Outro: 

e-----------------------------------------------------------------
b-----------------------------------------------------------------
g-----------------------------------------------------------------
d-----------------------------------------------------------------
a-5-2-1-2-1-0-5-2-1-2-1-0-5-2-0-2-5-2-1-2-1-0-5-2-1-2-1-0-5-2-0-2-
d-5-2-1-2-1-0-5-2-1-2-1-0-5-2-0-2-5-2-1-2-1-0-5-2-1-2-1-0-5-2-0-2-

3. Eyeless
Drop B
B F# B E G# C#

Riff A w/ Ring Modulator x2

e-12-12-12----12----12-12-12-12-12-12-12-12-12-12-----
b----------16----16-16-16-16-16-16-16-16-16-16-16-----
g-----------------------------------------------------
d-----------------------------------------------------
a-----------------------------------------------------
d-----------------------------------------------------

Gtr 1 Riff A x2

Riff B x2

e-----------------------------------------------------
b-----------------------------------------------------
g-----------------------------------------------------
d-----------------------------------------------------
a---------2---1---------------------------------------
d-0-0-0-3---3---2-0-0---------------------------------

Riff A x6

Riff C

e-----------------------------------------------------
b-----------------------------------------------------
g-----------------------------------------------------
d-------------------------------1---------------------
a---------2---1---------2-----1-----------------------
d-0-0-0-3---3---2-0-0-0---0-0-------------------------

Fig 1. x4

e----------------------------------------------------------------
b----------------------------------------------------------------
g----------------------------------------------------------------
d----------------------------------------------------------------
a-------3---2-3-----5-6-----6-8-------3---2-3-----5-6-----6-8----
d-0-0-0-3-0-2-3-0-0-5-6-0-0-6-8-0-0-0-3-0-2-3-0-0-5-6-0-0-6-8----

Verses
Fig 2.

e----------------------------------------------------------------
b----------------------------------------------------------------
g----------------------------------------------------------------
d----------------------------------------------------------------
a---------3---2-3------------------------3---2-3-----------------
d-0-0-0-0-3-0-2-3----------------0-0-0-0-3-0-2-3-----------------

Chorus: Fig 1 x4

Bridge: Fig 3

e-----------------------------------------------------
b-----------------------------------------------------
g-----------------------------------------------------
d-3-3-3---3-3-3-3-3-3-3---3-3-3-3---3-3-3-3-3-3-3-----
a-2-2-2---2-2-2-2-2-2-2---2-2-2-2---2-2-2-2-2-2-2-----
d-----------------------------------------------------

Interlude:

Fig 4.

e-----------------------------------------------------
b-----------------------------------------------------
g-----------------------------------------------------
d-----------------------------------------------------
a-0-0-0-----------0-0-1---0-0-1-----------------------
d-0-0-0--6~~~~~~~-0-0-1---0-0-1-----------------------

Interlude:

Riff D

e-----------------------------------------------------
b-----------------------------------------------------
g-----------------------------------------------------
d-----------------------------------------------------
a-----------------------------------------------------
d-0-------------4------------1--------2---------------

Half time feel

e-----------------------------------------------------------------
b-----------------------------------------------------------------
g-----------------------------------------------------------------
d-----------------------------------------------------------------
a-----------------------------------------------------------------
d-0-0-0-0-0-0-0-0-4-4-4-4-4-4-4-4-1-1-1-1-2-2-2-2-2-2-2-2-2-2-2-2-

Outro:

Fig 5.

e-----------------------------------------------------------------
b-----------------------------------------------------------------
g-----------------------------------------------------------------
d-----------------------------------------------------------------
a-0-0-0---------0-0-1---0-0-1--0-0-0----------0-0-1---0-0-1-------
d-0-0-0-6~~~~~~-0-0-1---0-0-1--0-0-0-6~~~~~~~-0-0-1---0-0-1-------

4. Wait And Bleed
Drop B
B F# B E G# C#

Riff A x4

e------------------------------------------------------------
b------------------------------------------------------------
g------------------------------------------------------------
d---0-----7-----1-----8-----7-------------8------------------
a-------------------------5-------7-----6---------8----8-----
d-0-----7-----1-----8-----------7---------------8----8-------

gtr 2. Riff B x2

e------------------------------------------------------------
b------------------------------------------------------------
g-14--14-14-14--14----14-14-14-14-14-15-15--15-14-14-14-14-15
d------------------------------------------------------------
a-12--12-12-12--12----12-12-12-12-12-13-13--13-12-12-12-12-13
d------------------------------------------------------------

e------------------------------------------------------------
b------------------------------------------------------------
g------------------------------------------------------------
d------------------------------------------------------------
a---------------------5-----------------------5--------------
d-0-0--0----0-0-0-0/6-----0-0--0----0-0-0-0/6----------------

                                        
e------------------------------------------------------------
b------------------------------------------------------------
g------------------------------------------------------------
d------------------------------------------------------------
a---------------------5--------------------------------------
d-0-0--0----0-0-0-0/6----0-0--0----0-0-0---------------------

Verse Fig 1. x8  

e------------------------------------------------------------
b------------------------------------------------------------
g------------------------------------------------------------
d------------------------------------------------------------
a-----------------1-4-1------------------1-4-1---------------
d-0-0--0----0-0-0-1-4-1--0-0--0----0-0-0-1-4-1---------------

Chorus before interlude

gtr 1.

e------------------------------------------------------------
b------------------------------------------------------------
g-7-7-7-7---7-7-7---8-8-7---8-8-7-7-7-7-7---7-7-7-8-8-8-8-8--
d-x-x-x-x---x-x-x---x-x-x---x-x-x-x-x-x-x---x-x-x-x-x-x-x-x--
a-5-5-5-5---5-5-5---6-6-5---6-6-5-5-5-5-5---5-5-5-6-6-6-6-6--
d------------------------------------------------------------

gtr 2.

e------------------------------------------------------------
b------------------------------------------------------------
g------------------------------------------------------------
d---0-----7-----1-----8-----7-----------8-8---8-8------------
a-------------------------5-------7--6--6-6---6-6-------5h6--
d-0-----7-----1-----8-----------7----------------------------

Interlude

e------------------------------------------------------------
b------------------------------------------------------------
g------------------------------------------------------------
d---7-----------------7-----------------7--------------------
a-8-------5br---5h6h8-------5br---5h6h8-------5br------------
d-----0-0-----0---------0-0-----0---------0-0-----0--0h1-----

Bridge

e------------------------------------------------------------
b------------------------------------------------------------
g------------------------------------------------------------
d------------------------------------------------------------
a---0-----0-----------0-----0--------------------------------
d-3---0-0-0--0--0h1h3---0-0-0--0--0h1h-----------------------

Chorus

e-----------------------------------------------------------------
b-----------------------------------------------------------------
g-----------------------------------------------------------------
d-0-0-0-7-7-7-7-1-1-1-1-1-1-1-1-1-0-0-0-7-7-7-7-1-1-1-1-1-1-1-1---
a-0-0-0-7-7-7-7-1-1-1-1-1-1-1-1-1-0-0-0-7-7-7-7-1-1-1-1-1-1-1-1---
d-0-0-0-7-7-7-7-1-1-1-1-1-1-1-1-1-0-0-0-7-7-7-7-1-1-1-1-1-1-1-1---

Outro:

e-----------------------------------------------------------------
b-----------------------------------------------------------------
g-----------------------------------------------------------------
d-----------------------------------------------------------------
a-0-0--0---0-0-0-1-4-1--0-0--0---0-0-0-1-4-1--0-0--0---0-0-0-1-4-1
d-0-0--0---0-0-0-1-4-1--0-0--0---0-0-0-1-4-1--0-0--0---0-0-0-1-4-1

5. Surfacing
Drop B
B F# B E G# C#

Riff A x4 sample arr. for gtr w/ wah

e-20b-(22)------------------20b-(22)----------------------
b---------------------------------------------------------
g---------------------------------------------------------
d----------172017201720---------------172017201720--------
a---------------------------------------------------------
d---------------------------------------------------------

gtr 1 play Riff A x12

gtr 2.

e-----------------------------------------------------------------
b-----------------------------------------------------------------
g-----------------------------------------------------------------
d-----------------------------------------------------------------
a-0-0-1-0---0-1---0-0-1-0---0-1---0-0-1-0---0-1---0-0-1-0---0-1---
d-0-0-1-0---0-1---0-0-1-0---0-1---0-0-1-0---0-1---0-0-1-0---0-1---

both gtrs. x2

e-----------------------------------------------------------------
b-----------------------------------------------------------------
g-----------------------------------------------------------------
d-----------------------------------------------------------------
a-0-0-1-0---0-1---0-0-1-0---0-1---0-0-1-0---0-1---0-0-1-0---0-1---
d-0-0-1-0---0-1---0-0-1-0---0-1---0-0-1-0---0-1---0-0-1-0---0-1---

Fig 1.

e-----------------------------------------------------------------
b-----------------------------------------------------------------
g-----------------------------------------------------------------
d-----------------------------------------------------------------
a-----1-0-----1-------1-0-----1-------1-0-----1-------1-0-----1---
d-0-0-1-0---0-1---0-0-1-0---0-1---0-0-1-0---0-1---0-0-1-0---0-1---

Riff B

e-20b-(22)------------20b-(22)----------------------------
b---------------------------------------------------------
g---------------------------------------------------------
d---------------------------------------------------------
a---------------------------------------------------------
d---------------------------------------------------------

gtr 2

e---------------------------------------------------------
b---------------------------------------------------------
g-7-7-8-7--7-8---(8)b-------------------------------------
d-x-x-x-x--x-x----x---------------------------------------
a-5-5-6-5--5-6---(6)b-------------------------------------
d---------------------------------------------------------

Interlude:

e---------------------------------------------------------
b---------------------------------------------------------
g---------------------------------------------------------
d---------------------------------------------------------
a-------7-6-----------4-3---------------------------------
d-8-7-6-----8-7-6-4-3-----4-3-2-1-------------------------

e---------------------------------------------------------
b---------------------------------------------------------
g---------------------------------------------------------
d-------9-8-----------6-5---------------------------------
a-8-7-6-7-6-8-7-6-4-3-4-3-4-3-2-1-------------------------
d-8-7-6-----8-7-6-4-3-----4-3-2-1-------------------------

Bridge:

e---------------------------------------------------------
b---------------------------------------------------------
g---------------------------------------------------------
d--------10---9-------------------------------------------
a-3---2---8---7---9---8---3---2---------------------------
d-3---2-----------9---8---3---2---------------------------

6.Spit It Out
Drop B
B F# B E G# C#

w/ flanger
e---------------------------------------------------
b---------------------------------------------------
g---------------------------------------------------
d---------------------------------------------------
a-1--0-----1--------1--0--1--0-----1--0-----1--0----
d-1--0-/5--1--0-/5--1--0--1--0-/5--1--0-/5--1--0----

Verse:  

e---------------------------------------------------
b---------------------------------------------------
g---------------------------------------------------
d---------------------------------------------------
a-1--0-----1--0-----1--0-1--0-----1--0-----1--0-----
d-1--0-/5--1--0-/5--1--0-1--0-/5--1--0-/5--1--0-----

e---------------------------------------------------
b---------------------------------------------------
g---------------------------------------------------
d---------------------------------------------------
a-1--0-----1--0-----1--0--1--0------1----------------
d-1--0-/5--1--0-/5--1--0--1--0--/5--1----------------

Fig 1. x6
e---------------------------------------------------
b---------------------------------------------------
g------5--------5--------------5--------5-----------
d------3--------3--------------3--------3-----------
a-1--0----1--0-----1--0--1--0-----1--0-----1--0-----
d-1--0----1--0-----1--0--1--0-----1--0-----1--0-----

Chorus: 

e---------------------------------------------------------
b---------------------------------------------------------
g---------------------------------------------------------
d---------------------------------------------------------
a-3-3-3---3-2---2-3--3-1---1-1-3-3-3---3-2---2-3--3--1----
d-3-3-3---3-2---2-3--3-1---1-1-3-3-3---3-2---2-3--3--1----

Verse
Riff A

e---------------------------------------------------------
b---------------------------------------------------------
g---------------------------------------------------------
d-----6------7br---------6------7br-----------------------
a-5-----5------------5-----5------------------------------
d---------------------------------------------------------

Bridge:

e---------------------------------------------------------
b---------------------------------------------------------
g-7-7-7--7-8--8-7--7-8---8-7-7-7-7--7-8--8-7--7-8---8-7---
d-x-x-x--x-x--x-x--x-x---x-x-x-x-x--x-x--x-x--x-x---x-x---
a-5-5-5--5-6--6-5--5-6---6-5-5-5-5--5-6--6-5--5-6---6-5---
d-0-0-0----------------------0-0-0------------------------

e---------------------------------------------------------
b101010-1011-1110-1011--1110101010-1011-1110-1011--1011---
g-x-x-x--x-x--x-x--x-x---x-x-x-x-x--x-x--x-x--x-x---x-x---
d-7-7-7--7-8--8-7--7-8---8-7-7-7-7--7-8--8-7--7-8---7-8---
a-0-0-0--0-1--1-0--0-1---1-0-0-0-0--0-1--1-0--0-1---1-0---
d-0-0-0--0-1--1-0--0-1---1-0-0-0-0--0-1--1-0--0-1---1-0---

e---------------------------------------------------------
b---------------------------------------------------------
g-19-19-19--19-20--19-20--20-19-21212121212121212121212---
d-x--x--x---x--x---x--x---x--x--x-x-x-x-x-x-x-x-x-x-x-x---
a-17-17-17--17-18--17-18--18-17-191919191919191919191919--
d---------------------------------------------------------

7.Tattered And Torn
Drop B
B F# B E G# C#

Riff A
w/ heavy reverb and whammy pedal set up one octave

e-18p17h18-------------17h18p17h18--------------------
b----------19h20p19h20-------------16h17p16h17p16-----
g-----------------------------------------------------
d-----------------------------------------------------
a-----------------------------------------------------
d-----------------------------------------------------

Verses dive w/ whammy pedal

e-18---------(14)----------18------------(14)---------
b-----------------------------------------------------
g-----------------------------------------------------
d-----------------------------------------------------
a-----------------------------------------------------
d-----------------------------------------------------

Outro:

e---------------------------------------------------------
b---------------------------------------------------------
g---------------------------------------------------------
d---------------------------------------------------------
a-0-0--0-1p0--0-3p0--0-1p0-4--0-0--0-1p0--0-3p0--0-1p0-4--
d-0-0--0-1p0--0-3p0--0-1p0-4--0-0--0-1p0--0-3p0--0-1p0-4--

e--------------------------------------------------------------
b--------------------------------------------------------------
g--------------------------------------------------------------
d--------------------------------------------------------------
a-0-0-0-0-1p0-0-0-3p0-0-0-1p0-4-0-0-0-0-1p0-0-0-3p0-0-0-1p0-4--
d-0-0-0-0-1p0-0-0-3p0-0-0-1p0-4-0-0-0-0-1p0-0-0-3p0-0-0-1p0-4--

8.Me Inside
Drop B
B F# B E G# C#


gtr 1 Fig 1. x2

e-----------------------------------------------------------------
b-----------------------------------------------------------------
g-----------------------------------------------------------------
d-----------------------------------------------------------------
a-0-1-0----0-1-0----0-1-0----0-1-0----0-1-0----0-1-0----0-1-0-----
d-0-1-0----0-1-0----0-1-0----0-1-0----0-1-0----0-1-0----0-1-0-----

gtr 2 Riff A x2

w/ wah
e-----------------------------------------------------------------
b-----------------------------------------------------------------
g-777777777777777777777777777777777777777777777777777777777777777-
d-----------------------------------------------------------------
a-----------------------------------------------------------------
d-----------------------------------------------------------------

gtr 1

e-----------------------------------------------------------------
b-----------------------------------------------------------------
g-----------------------------------------------------------------
d-----------------------------------------------------------------
a-1p0-1p0--0--x-1p0-1p0--0--x-1p0-1p0--0--x-1p0-1p0--0--x---------
d-1p0-1p0--0--x-1p0-1p0--0--x-1p0-1p0--0--x-1p0-1p0--0--x---------

gtr 2

e-----------------------------------------------------------------
b-----------------------------------------------------------------
g-777777777777777777777777777777777777777777777777777777777777777-
d-----------------------------------------------------------------
a-----------------------------------------------------------------
d-----------------------------------------------------------------

both gtr 2.

e-----------------------------------------------------------------
b-----------------------------------------------------------------
g-----------------------------------------------------------------
d-----------------------------------------------------------------
a-1p0-1p0--0--x-1p0-1p0--0--x-1p0-1p0--0--x-1p0-1p0--0--x---------
d-1p0-1p0--0--x-1p0-1p0--0--x-1p0-1p0--0--x-1p0-1p0--0--x---------

e-20p16----17p15p14--14h17-14h16p14-21--16p14-17p14----14h17p14-21
b-------17-----------------------------------------17-------------
g----------------------------------------------------14-----------
d-----------------------------------------------------------------
a-----------------------------------------------------------------
d-----------------------------------------------------------------

Verse 1 

gtr 2 Riff B w/ heavy slow phaser

e----16------15---------17-----16------15---------17--------------
b-------15------14----------------15------14----------------------
g-14---------------13---15--14---------------13---15--------------
d-----------------------------------------------------------------
a-----------------------------------------------------------------
d-----------------------------------------------------------------

gtr 1. Riff B1

e-----------------------------------------------------------------
b-----------------------------------------------------------------
g-----------------------------------------------------------------
d-----------------------------------------------------------------
a-----------------------------------------------------------------
d-3-0-2-3-1-2----3-0-2-3-1-2----3-0-2-3-1-2----3-0-2-3-1-2--------

Chorus 

e-----------------------------------------------------------------
b-----------------------------------------------------------------
g-----------7----7b--------------7----7b--------------7---7b------
d-----------x----x---------------x----x---------------x---x-------
a-1-1---1---5----5b----1-1---1---5----5b----1-1---1---5---5b------
d-1-1---1--------------1-1---1--------------1-1---1---------------

Verse 2  

e-----------------------------------------------------------------
b-----------------------------------------------------------------
g-----------------------------------------------------------------
d-----------------------------------------------------------------
a-----------------------------------------------------------------
d-3-0-2-3-1-2~~~-3-0-2-3-1-2~~~-3-0-2-3-1-2~~~-3-0-2-3-1-2--------

Bridge   

Fig 3
e-----------------------------------------------------------------
b-----------------------------------------------------------------
g--------------------------------5/7-7-7-7/8-8-8------------------
d--------------------------------x-x-x-x-x-x-x-x------------------
a-0---6-5-3---1-1h3-1----0-------3/5-5-5-5/6-6-6------------------
d-0---6-5-3---1-1h3-1----0----------------------------------------


e-----------------------------------------------------------------
b-----------------------------------------------------------------
g-----------------------------------------------------------------
d-----------------------------------------------------------------
a-1--0--0-0--0-1--0--0-0--0--1--0--0-0--0-1--0--0-0--0------------
d-1--0--0-0--0-1--0--0-0--0--1--0--0-0--0-1--0--0-0--0------------

e-----------------------------------------------------------------
b-----------------------------------------------------------------
g-----------------------------------------------------------------
d-----------------------------------------------------------------
a-1p0-0---0--0-1p0-0--0--0-1p0-0--0--0-1p0-0--0-0-----------------
d-1p0-0---0--0-1p0-0--0--0-1p0-0--0--0-1p0-0--0-0-----------------

Outro:

e-----------------------------------------------------------------
b-----------------------------------------------------------------
g-7-7-7-7-7-7-7-7-7-7-7-7-7-7-7-7-7-7-7-7-7-7-7-7-7-7-7-7-7-7-7-7-
d-x-x-x-x-x-x-x-x-x-x-x-x-x-x-x-x-x-x-x-x-x-x-x-x-x-x-x-x-x-x-x-x-
a-5-5-5-5-5-5-5-5-5-5-5-5-5-5-5-5-5-5-5-5-5-5-5-5-5-5-5-5-5-5-5-5-
d-----------------------------------------------------------------

e-----------------------------------------------------------------
b-----------------------------------------------------------------
g-----------------------------------------------------------------
d-----------------------------------------------------------------
a-0-0-0-0-0-1---0-0-0-0-0-0-1---0-0-0-0-0-0-1---0-0-0-0-0-0-1-----
d-0-0-0-0-0-1---0-0-0-0-0-0-1---0-0-0-0-0-0-1---0-0-0-0-0-0-1-----

9.Liberate
Drop B
B F# B E G# C#

e----------------------------------------------------------
b----------------------------------------------------------
g----------------------------------------------------------
d----------------------------------------------------------
a----------------------------------------------------------
d-13-0--0-0--0-0-0--0-0-0--0-13-0--0-0--0-0-0--0-0-0--0----

Chorus    

Fig 1. x3

e----------------------------------------------------------
b----------------------------------------------------------
g----------------------------------------------------------
d----------------------------------------------------------
a-1--0--1-0--1-0--1-0--1--0--1-0--1-0--1-0-----------------
d-1--0--1-0--1-0--1-0--1--0--1-0--1-0--1-0-----------------

e----------------------------------------------------------
b----------------------------------------------------------
g----------------------------------------------------------
d----------------------------------------------------------
a-------------5--4-----0-----------------------------------
d-1--0--5--3--------3--0-----------------------------------

Interlude:

e----------------------------------------------------------
b----------------------------------------------------------
g----------------------------------------------------------
d----------------------------------------------------------
a-1--0----0-1-0-5-4------------0-1--0----0-1-0-4-3---2--0--
d-1--0----0-1-0-5-4-58585858~~-0-1--0----0-1-0-4-3---2--0--

Verses

e----------------------------------------------------------
b----------------------------------------------------------
g----------------------------------------------------------
d----------------------------------------------------------
a-1--0----0-1-0-5-4------------0-1--0----0-1-0-5-4---------
d-1--0----0-1-0-5-4-69696969~~-0-1--0----0-1-0-5-4-6969696~

e----------------------------------------------------------
b----------------------------------------------------------
g----------------------------------------------------------
d----------------------------------------------------------
a-1--0----00-1-0-5-4------------0-1-0----00-1-0-5-4--------
d-1--0----00-1-0-5-4-58585858~~-0-1-0----00-1-0-5-4-696969~

Pre Chorus 

Fig 2.

e-----------------------------------------
b-----------------------------------------
g-----------------------------------------
d-----------------------------------------
a-1-0---0---0---00-1-0-5-4----------------
d-1-0---0---0---00-1-0-5-4-58585858~~-----

e-----------------------------------------
b-----------------------------------------
g-----------------------------------------
d-----------------------------------------
a-1-0---0---0---00-1-0-5-4----------------
d-1-0---0---0---00-1-0-5-4-69696969~~-----

Bridge: Fig.3 x4

e-----------------------------------------
b-----------------------------------------
g-----------------------------------------
d-----------------------------------------
a-0--1---0--1---0---1---0--1---0-1---0-1--
d-0--1---0--1---0---1---0--1---0-1---0-1--

e-----------------------------------------
b-----------------------------------------
g-----------------------------------------
d-----------------------------------------
a-5------5------5-------5------5-----5----
d----1------1-------1------1-----1-----1--

gtr 1. Riff B

e-----------------------------------------
b-----------------------------------------
g-----------------------------------------
d-8-8-8b-8b-8b-8b-8b-8b-8b-8b-8b-8b-8b----
a-----------------------------------------
d-----------------------------------------

gtr 2. Fig 4

e-----------------------------------------
b-----------------------------------------
g-----------------------------------------
d-----------------------------------------
a-8--0-0-0-0-0-1-1-0-9--0-0-0-0-0-1-1-0---
d-8--0-0-0-0-0-1-1-0-9--0-0-0-0-0-1-1-0---

gtr 1.

e-----------------------------------------
b-----------------------------------------
g-----------------------------------------
d-8b-8b-8b-8b-8b-8b-8b-8-8-8-8-8-8-9-8-8--
a-----------------------------------------
d-----------------------------------------

gtr 2.

e-----------------------------------------
b-----------------------------------------
g-----------------------------------------
d-----------------------------------------
a-8--0-0-0-0-0-1-1-0-9--0-0-0--0-0--0-1---
d-8--0-0-0-0-0-1-1-0-9--0-0-0--0-0--0-1-8~

Outro:

e-----------------------------------------
b-----------------------------------------
g-----------------------------------------
d-----------------------------------------
a-2----1-----0----1----2----1----0----1---
d-2----1-----0----1----2----1----0----1---


e-----------------------------------------
b-----------------------------------------
g---------(16)----------------------------
d--------------(18)-----------------------
a-2----1-------------0-0-0-2--------------
d-2----1-------------0-0-0-2--------------

10.Prosthetics
Drop B
B F# B E G# C#

really slow w/ heavy flanger and delay

                                  Fig 1.
e-----------------------------------------------------------------
b-----------------------------------------------------------------
g-----------------------------------------------------------------
d-7-7-6---0-0-7---0-0-7---0-0-7---0-0-6---0-0-7---0-0-7---0-0-7---
a-x-x-x---x-x-x---x-x-x---x-x-x---x-x-x---x-x-x---x-x-x---x-x-x---
d-7-7-6---0-0-7---0-0-7---0-0-7---0-0-6---0-0-7---0-0-7---0-0-7---

Riff A

e-17----17----17----17----17----17----17----17----18----18----18--
b----15----15----15----15----15----15----15----15----15----15-----
g-----------------------------------------------------------------
d-----------------------------------------------------------------
a-----------------------------------------------------------------
d-----------------------------------------------------------------

e-18----18----18----18----18--------------------------------------
b----14----14----14----14----14-----------------------------------
g-----------------------------------------------------------------
d-----------------------------------------------------------------
a-----------------------------------------------------------------
d-----------------------------------------------------------------

e-----------------------------------------------------------------
b-----------------------------------------------------------------
g-----------------------------------------------------------------
d-----------------4---------------------------4-------------------
a------5-----------------------5----------------------------------
d-0----------4----------0---------------4-------------------------

Verse 1  

e-----------------------------------------------------------------
b-----------------------------------------------------------------
g-----------------------------------------------------------------
d-----------------------------------------------------------------
a-5-5-5-5-5-5-5-5-5-5-5-5-5-5-5-5-4-4-4-4-4-4-4-4-4-4-4-4-4-4-4---
d-----------------------------------------------------------------

e-----------------------------------------------------------------
b-----------------------------------------------------------------
g-----------------------------------------------------------------
d-----------------------------------------------------------------
a---------------------------------4-4-4-4-4-4-4-4-4-4-4-4-4-4-4---
d-0-0-0-0-0-0-0-0-0-0-0-0-0-0-0-0---------------------------------

Pre Chorus:   

e-----------------------------------------------------------------
b-----------------------------------------------------------------
g-----------------------------------------------------------------
d-----------------------------------------------------------------
a-0---00-1--0---0-----00-1--0--1-----00-1-0--1---00-1-0---0-------
d-0---00-1--0---0-----00-1--0--1-----00-1-0--1---00-1-0---0-------

e-----------------------------------------------------------------
b-----------------------------------------------------------------
g-----------------------------------------------------------------
d-----------------------------------------------------------------
a-----00-1--0---0-----00-1--0--1-----00-1-0--1---00-1-0---0-------
d-----00-1--0---0-----00-1--0--1-----00-1-0--1---00-1-0---0-------


Chorus:

e-----------------------------------------------------------------
b-----------------------------------------------------------------
g-----------------------------------------------------------------
d-----------------------------------------------------------------
a-8--7--1--2--2/3-3-3-3-3-3-3--8--7--1--2--2/3-3-3-3-3-3-3--------
d-8--7--1--2--2/3-3-3-3-3-3-3--8--7--1--2--2/3-3-3-3-3-3-3--------

Bridge:

gtr 2.

e-----------------------------------------------------------------
b-7878787878787878787878787878787878787878787878787878787878787878
g-----------------------------------------------------------------
d-----------------------------------------------------------------
a-----------------------------------------------------------------
d-----------------------------------------------------------------

gtr 1.

e-----------------------------------------------------------------
b-----------------------------------------------------------------
g-----------------------------------------------------------------
d-----------------------------------------------------------------
a-3-2-0-2-1-0-1-2-3-2-0-2-1-0-1-2-3-2-0-2-0-1-2-3-2-0-2-1-0-1-2---
d-3-2-0-2-1-0-1-2-3-2-0-2-1-0-1-2-3-2-0-2-0-1-2-3-2-0-2-1-0-1-2---

last bar:

e-----------------------------------------------------------------
b-----------------------------------------------------------------
g-----------------------------------------------------------------
d-----------------------------------------------------------------
a-6----6----6----6----6----5----6---------------------------------
d-6----6----6----6----6----5----6---------------------------------

11. No Life
Drop B
B F# B E G# C#

*=harmonics

Riff A

e----------------------------------------------
b----------------------------------------------
g----------------------------------------------
d----------------------------------------------
a----------------------------------------------
d-6b--0-6b---0-0h7-7p0-6b--0-6b---0-0h7-7p0----

Clipes

Cifra Club Pro

Aproveite o Cifra Club com benefícios exclusivos e sem anúncios
7 dias grátis
Cifra Club Pro
Aproveite o Cifra Club com benefícios exclusivos e sem anúncios
7 dias grátis