busca

Some Feel

Slipknot

Tom: C
Afinação(D,A,D,G,B,E)

D|-0-0-0-0-4-0-6~--0-0-0-3-1
A|-0-0-0-0-4-0-6~--0-0-0-3-1
D|-0-0-0-0-4-0-6~--0-0-0-3-1

D|-0-0-0-0-4-0-6~-0-0-0--0-0
A|-0-0-0-0-4-0-6~-0-0-0--0-0
D|-0-0-0-0-4-0-6~-0-0-0--0-0

D|-5-5-5--2--2-2-3-2--2-2-3-2--2-2-3-2
A|------------------------------------
D|------------------------------------

D|-0-0--0-1-0-0--3-0--0-0--0-1-0-0--6-5-5-8-0
A|-0-0--0-1-0-0--3-0--0-0--0-1-0-0--6-5-5-8-0
D|-0-0--0-1-0-0--3-0--0-0--0-1-0-0--6-5-5-8-0

e|-5555555555555555-6666666666666666\
b|-5555555555555555-6666666666666666 \ 
G|-3333333333333333-4444444444444444 /
D|-3333333333333333-4444444444444444/

D|-2-0-0-3-x-x-x-x-x-x-x-x
A|-2-0-0-3-x-x-x-x-x-x-x-x
D|-2-0-0-3-x-x-x-x-x-x-x-x

Clipes

Cifra Club Pro

Aproveite o Cifra Club com benefícios exclusivos e sem anúncios
Cifra Club Pro
Aproveite o Cifra Club com benefícios exclusivos e sem anúncios